>
 >
Coddingtown 1

Coddingtown 1 Bass Tabs

Primus - Coddingtown 1 chords, tabs, tablatures, lyrics

Guitar lessons | Add/correct | Request | Top 50 tabs Artists:  A B C D E F G H I J K L M N O P Q R S T U V W X Y Z 0-9

Coddingtown 1 Bass Tabs – Primus

CD, Sheet music, Poster

Do you like Coddingtown 1? Share with your friends now
Bass TabsBass Tabs v2Tabs

CODDINGTOWN (Bassline)
As recorded by Primus
(From the 1997 Album BROWN ALBUM)

	

Words by Les Claypool Music by Primus

Gtr I (E A D G) - 'Untitled'

 Intro
  Q=135
 4/4
  Gtr I
  Wx2            Q  Q  Q  E E  4x  Q   Q   Q   E  E    Q   Q   Q   E  E
|------------||----------------||-------------------|-------------------|
|------------||o--------------o||-14------14--12----|---------14--12----|
|------------||o--------------o||-----14---------14-|-----14---------14-|
|------------||--0--3--5--6s7--||-------------------|-12----------------|


    Q  Q  Q  E E      Q   Q   Q   E  E    Q   Q   Q   E  E     Q  Q  Q  E E
||----------------||-------------------|-------------------||-----------------||
||o--------------o||-14------14--12----|---------14--12----||o---------------o||
||o--------------o||-----14---------14-|-----14---------14-||o---------------o||
||--0--3--5--6s7--||-------------------|-12----------------||--0--3--5--6s7---||


   Verse            Interlude
    Q  Q  Q  E E  8x  Q   Q   Q   E  E    Q   Q   Q   E  E     Q  Q  Q  E E
||----------------||-------------------|-------------------||-----------------||
||o--------------o||-14------14--12----|---------14--12----||o---------------o||
||o--------------o||-----14---------14-|-----14---------14-||o---------------o||
||--0--3--5--6s7--||-------------------|-12----------------||--0--3--5--6s7---||


   Q   Q   Q   E  E    Q   Q   Q   E  E
|-------------------|-------------------|
|-14------14--12----|---------14--12----|
|-----14---------14-|-----14---------14-|
|-------------------|-12----------------|


                        Verse
    Q  Q  Q  E E         Q  Q  Q  E E  8x
||----------------||-||----------------||
||o--------------o||-||o--------------o||
||o--------------o||-||o--------------o||
||--0--3--5--6s7--||-||--0--3--5--6s7--||


 Bridge
  $
                                                            |-3-| |-3-|
  H..       E   W            Q  Q  Q  E E     H..       E   q q q Q Q Q
|-------------|----------||----------------||-------------|---------------|
|-------------|----------||o--------------o||-------------|---------------|
|-----------3-|----------||o--------------o||-----------3-|-3-3-3---------|
|-5-----------|----------||--0--3--5--6s7--||-5-----------|-------3-2-1---|


   Chorus           Interlude
    Q  Q  Q  E E  8x  Q   Q   Q   E  E    Q   Q   Q   E  E     Q  Q  Q  E E
||----------------||-------------------|-------------------||-----------------||
||o--------------o||-14------14--12----|---------14--12----||o---------------o||
||o--------------o||-----14---------14-|-----14---------14-||o---------------o||
||--0--3--5--6s7--||-------------------|-12----------------||--0--3--5--6s7---||


   Q   Q   Q   E  E    Q   Q   Q   E  E
|-------------------|-------------------|
|-14------14--12----|---------14--12----|
|-----14---------14-|-----14---------14-|
|-------------------|-12----------------|


                        Verse            Outro
                                D.S.
    Q  Q  Q  E E         Q  Q  Q  E E  8x H..       E
||----------------||-||----------------||---------------*|
||o--------------o||-||o--------------o||---------------*|
||o--------------o||-||o--------------o||-----------3---*|
||--0--3--5--6s7--||-||--0--3--5--6s7--||-5-------------*|



Duration Legend
---------------
W - whole; H - half; Q - quarter; E - 8th; S - 16th; T - 32nd; X - 64th; a - acciaccatura
+ - note tied to previous; . - note dotted; .. - note double dotted
Uncapitalized letters represent notes that are staccato (1/2 duration)
Irregular groupings are notated above the duration line
Duration letters will always appear directly above the note/fret number it represents the
duration for.  Duration letters with no fret number below them represent rests.  Multi-
bar rests are notated in the form Wxn, where n is the number of bars to rest for.  Low
melody durations appear below the staff

Tablature Legend
----------------
 h   - hammer-on
 p   - pull-off
 b   - bend
 pb  - pre-bend
 r   - bend release (if no number after the r, then release immediately)
 /\  - slide into or out of (from/to "nowhere")
 s   - legato slide
 S   - shift slide
 - natural harmonic
[n]  - artificial harmonic
n(n) - tapped harmonic
 ~   - vibrato
 tr  - trill
 T   - tap
 TP  - trem. picking
 PM  - palm muting
\n/  - tremolo bar dip; n = amount to dip
 \n  - tremolo bar down
 n/  - tremolo bar up
/n\  - tremolo bar inverted dip
 =   - hold bend; also acts as connecting device for hammers/pulls
 <> - volume swell (louder/softer)
 x   - on rhythm slash represents muted slash
 o   - on rhythm slash represents single note slash

Misc Legend
-----------
 |  - bar
||  - double bar
||o - repeat start
o|| - repeat end
*|  - double bar (ending)
 :  - bar (freetime)
 $  - Segno
 &  - Coda
Tempo markers -  = BPM(8/16=s8/s16), where s8 = swing 8ths, s16 = swing 16ths





Comments


Popular Primus tabs & chords
Behind My Camel Bass Tabs
Dmv 3 Bass Tabs
Fisticuffs 4 Bass Tabs
Greet The Sacred Cow Bass Tabs
Southbound Pachyderm 2 Bass Tabs
Temporary Phase Bass Tabs
Tippi Toes Bass Tabs
Del Davis Tree Farm Drum Tabs
Electric Uncle Sam 1 Tabs
Eleven 2 Tabs


Song lyrics



↑ Back to top | Tablatures and chords are parodies/interpretations of the original songs. You may use it for private study, scholarship, research or language learning purposes only
© 2014 AZChords.com Contact us | Privacy policy | DMCA | Add/correct tabs | Request tabs | Top 50 tabs