» » »

Coddingtown Bass tabs (ver.1)

Artists:  A B C D E F G H I J K L M N O P Q R S T U V W X Y Z # 

Coddingtown Bass tabs (ver.1)

Primus
Rating:
5/5 (1 vote)

Hard to play? Try these video lessons and learn fast.
                This is played on an upright bass with a bow, but i still play it on my 4-string electric

Verse:
G-------------|
D-------------|  Repeat...
A-------------|
E-0--3--5-6-7-|
    Coddingtown, Coddingtown,....

G-----9-7-------9-7---|
D---9-----9---9-----9-|
A-7---------7---------|
E---------------------|

Chorus:
G---------------|
D---------------|
A------------3~-|
E-5~------------|
Bring me oh back...

G-------------|
D-------------|
A-------------|  X 2
E-0--3--5-6-7-|

G-------------------------|
D-------------------------|
A-------------3-3-3-2-1-0-|
E-5---------3-------------|
            
Hard to play? Try these video lessons and learn fast. | Correct




comments powered by Disqus
↑ Back to top | Tablatures and chords are parodies/interpretations of the original songs. You may use it for private study, scholarship, research or language learning purposes only