» » »

Captain Shiner Bass tabs (ver.2)

Artists:  A B C D E F G H I J K L M N O P Q R S T U V W X Y Z # 

Captain Shiner Bass tabs (ver.2)

Primus
Rating:
0/5 (0 votes)

Hard to play? Try these video lessons and learn fast.
                ---------|
---------|  Play a Couple Of Times
-0-3h-3--|
-----3-3-|

----------7-999-7/5----7-999-7/5----------------|
--------10----------5-----------5------5--------|
------10--------------------------3/5-5-5-------|
-3/8-8------------------------------------------|

----------7-999-7/5-----9-5-7h-5-----------------|
--------10----------5-----------5-7h-5p----------|
------10-------------------------------7-5-7-3---|
-3/8-8-------------------------------------------|
            
Hard to play? Try these video lessons and learn fast. | Correct




comments powered by Disqus
↑ Back to top | Tablatures and chords are parodies/interpretations of the original songs. You may use it for private study, scholarship, research or language learning purposes only