» » »

Primus, Behind My Camel Bass tabs (ver.1)

Artists:  A B C D E F G H I J K L M N O P Q R S T U V W X Y Z # 

Behind My Camel Bass tabs (ver.1)

Primus Tabs
Rating:
0/5 (0 votes)
Behind My Camel lessons Tabs too difficult? Try these video lessons and learn fast
                Tuning: Standard (E,A,D,G)

PLEASE RATE THIS TAB

G --------------|--------------|--------------|--------------|
D --------------|--------------|--------------|--------------|
A -3--------3-3-|-3--------3-3-|-5--------5-5-|-3--------3-3-|
E --------------|--------------|--------------|--------------|

G --------------|--------------|--------------|--------------|
D --------------|--------------|--------------|--------------|
A -3--------3-3-|-5--------5-5-|--------------|-3--------3-3-|
E --------------|--------------|-3--------3-3-|--------------|

G --------------|--------------|--------------|--------------|
D --------------|--------------|--------------|--------------|
A -3--------3-3-|-5--------5-5-|-3--------3-3-|-3--------3-3-|
E --------------|--------------|--------------|--------------|

G --------------|--------------|--------------|--------------|
D --------------|--------------|--------------|--------------|
A -5--------5-5-|--------------|-3--------3-3-|-3--------3-3-|
E --------------|-3--------3-3-|--------------|--------------|

G --------------|--------------|--------------|--------------|
D --------------|--------------|--------------|--------------|
A -5--------5-5-|-3--------3-3-|-3--------3-3-|-5--------5-5-|
E --------------|--------------|--------------|--------------|

G -----------------|
D -----------------| AND SO ON...
A -----------------|
E -3-------X-3-X-3-|

wow tough. haha not really.. have fun with this tab, no idea why you had to look it up tho.
            

comments powered by Disqus
↑ Back to top | Primus Bass for Behind My Camel. Lyrics for acoustic guitar and electric guitar. Tablatures and chords are parodies/interpretations of the original songs. You may use it for private study, scholarship, research or language learning purposes only