» » »

American Life Bass tabs (ver.2)

Artists:  A B C D E F G H I J K L M N O P Q R S T U V W X Y Z # 

American Life Bass tabs (ver.2)

Primus
Rating:
5/5 (10 votes)

Hard to play? Try these video lessons and learn fast.
                Band  - Primus
Song  - American Life
Album - Sailing the Seas of Cheese (1991)

Intro:
G|----0------0-----0------0h3p0-0--0--0--|----0------0-----0------------0--0--0--|
D|----0h3h5--5p3h5-0h3h5--------5--5--5--|----0h3h5--5p3h5-0h3h5--0h3h5-5--5--5--|
A|----------x------------x---------------|----------x------------x---------------|
E|-3-------------------------------------|-3-------------------------------------|

G|---------------------------------------|------------------------0h3p0----------|
D|----0h3h5--5h3p3-0h3h5--0h3h5-5--5--5--|----0h3h5--5p3h5-0h3h5--------5--5--5--|
A|---------------------------------------|---------------------------------------|
E|-3-------------------------------------|-3-------------------------------------|

Verse:
G|------------------------0h3p0----------|---------------------------------------|
D|----0h3h5--5p3h3-0h3h5--------5--5--5--|----0h3h5--5p3h5-0h3h5--0h3h5-5--5--5--|
A|---------------------------------------|---------------------------------------| x3
E|-3-------------------------------------|-3-------------------------------------|

G|---------------------|-3--3--3--3--3--3--3--3--|-3--3--3--3--3--3--3--3--|
D|----0h3h5-0h3h5-0----|-1--1--1--1--1--1--1--1--|-1--1--1--1--1--1--1--1--|
A|---------------------|-------------------------|-------------------------|
E|-3-------------------|-------------------------|-------------------------|

G|------------------------0h3p0----------|---------------------------------------|
D|----0h3h5--5p3h3-0h3h5--------5--5--5--|----0h3h5--5p3h5-0h3h5--0h3h5-5--5--5--|
A|---------------------------------------|---------------------------------------| x4
E|-3-------------------------------------|-3-------------------------------------|

G|------------------------0h3p0----------|---------------------------------------|
D|----0h3h5--5p3h5-0h3h5--------5--5--5--|----0h3h5--5p3h5-0h3h5--0h3h5-5--5--5--|
A|---------------------------------------|---------------------------------------| x3
E|-3-------------------------------------|-3-------------------------------------|

G|---------------------|-3--3--3--3--3--3--3--3--|-3--3--3--3--3--3--3--3--|
D|----0h3h5-0h3h5-0----|-1--1--1--1--1--1--1--1--|-1--1--1--1--1--1--1--1--|
A|---------------------|-------------------------|-------------------------|
E|-3-------------------|-------------------------|-------------------------|

G|------------------------0h3p0----------|---------------------------------------|
D|----0h3h5--5p3h5-0h3h5--------5--5--5--|----0h3h5--5p3h5-0h3h5--0h3h5-5--5--5--|
A|---------------------------------------|---------------------------------------| x2
E|-3-------------------------------------|-3-------------------------------------|


Guitar Solo:
G|------------------------0h3p0----------|---------------------------------------|
D|----0h3h5--5p3h5-0h3h5--------5--5--5--|----0h3h5--5p3h5-0h3h5--0h3h5-5--5--5--|
A|---------------------------------------|---------------------------------------| 
E|-3-------------------------------------|-3-------------------------------------|

G|------------------------0h3p0----------|----------------------5-5--5-----------|
D|----0h3h5--5p3h5-0h3h5--------5--5--5--|----0h3h5--5p3h5-0h5--7-7--7---7---6---|
A|---------------------------------------|---------------------------------------| 
E|-3-------------------------------------|-3-------------------------------------|

G|------------------------0h3p0----------|---------------------------3---3---3---|
D|----0h3h5--5p3h5-0h3h5--------5--5--5--|----0h3h5--5p3h5-0h3h5-0h5-5---5---5---|
A|---------------------------------------|---------------------------------------| 
E|-3-------------------------------------|-3-------------------------------------|

G|------------------------0h3p0----------|----------------------5-5--5-----------|
D|----0h3h5--5p3h5-0h3h5--------5--5--5--|----0h3h5--5p3h5-0h5--7-7--7---7---6---|
A|---------------------------------------|---------------------------------------| x2
E|-3-------------------------------------|-3-------------------------------------|

G|----------------------5-5--5-----------|----------------------5-5--5-----------|
D|----0h3h5--5p3h5-0h5--7-7--7---7---6---|----0h3h5--5p3h5-0h5--7-7--7---7---6---|
A|---------------------------------------|---------------------------------------| 
E|-3-------------------------------------|-3-------------------------------------|

G|------------------------0h3p0----------|---------------------------------------|
D|----0h3h5--5p3h3-0h3h5--------5--5--5--|----0h3h5--5p3h5-0h3h5--0h3h5-5--5--5--|
A|---------------------------------------|---------------------------------------| x4
E|-3-------------------------------------|-3-------------------------------------|


Verse:
G|------------------------0h3p0----------|---------------------------------------|
D|----0h3h5--5p3h3-0h3h5--------5--5--5--|----0h3h5--5p3h5-0h3h5--0h3h5-5--5--5--|
A|---------------------------------------|---------------------------------------| x3
E|-3-------------------------------------|-3-------------------------------------|

G|---------------------|-3--3--3--3--3--3--3--3--|-3--3--3--3--3--3--3--3--|
D|----0h3h5-0h3h5-0----|-1--1--1--1--1--1--1--1--|-1--1--1--1--1--1--1--1--|
A|---------------------|-------------------------|-------------------------|
E|-3-------------------|-------------------------|-------------------------|

G|------------------------0h3p0----------|---------------------------------------|
D|----0h3h5--5p3h3-0h3h5--------5--5--5--|----0h3h5--5p3h5-0h3h5--0h3h5-5--5--5--|
A|---------------------------------------|---------------------------------------| 
E|-3-------------------------------------|-3-------------------------------------|

G|------------------------0h3p0----------|----------------------3p0--------------|
D|----0h3h5--5p3h3-0h3h5--------5--5--5--|----0h3h5--0h5---0h5--------5---5/7----|   
A|---------------------------------------|---------------------------------------| 
E|-3-------------------------------------|-3-------------------------------------|

G|------------------------0h3p0----------|---------------------------------------|
D|----0h3h5--5p3h3-0h3h5--------5--5--5--|----0h3h5--5p3h5-0h3h5--0h3h5-5--5--5--|
A|---------------------------------------|---------------------------------------| 
E|-3-------------------------------------|-3-------------------------------------|

G|------------------------0h3p0----------|----------------------5-5--5-----------|
D|----0h3h5--5p3h5-0h3h5--------5--5--5--|----0h3h5--5p3h5-0h5--7-7--7---7---6---|
A|---------------------------------------|---------------------------------------| 
E|-3-------------------------------------|-3-------------------------------------|


Outro Solo:
G|------------------------0h3p0----------|----------------------5-5--5-----------|
D|----0h3h5--5p3h5-0h3h5--------5--5--5--|----0h3h5--5p3h5-0h5--7-7--7---7---6---|
A|---------------------------------------|---------------------------------------| x6
E|-3-------------------------------------|-3-------------------------------------|

G|-3----3----3----3---3----3----2----2---|-3----3----3----3---5----5----7----7---|
D|-1----1----1----1---1----1----0----0---|-1----1----1----1---3----3----5----5---|
A|---------------------------------------|---------------------------------------| x4
E|---------------------------------------|---------------------------------------|

G|-3---3---3---2--2---3---3---3---2--2---|-3----3----3----3---5----5----7----7---|
D|-1---1---1---0--0---1---1---1---0--0---|-1----1----1----1---3----3----5----5---|
A|---------------------------------------|---------------------------------------| x4
E|---------------------------------------|---------------------------------------|


G|-3---3---3------2---3---3---3---2--2---|-3---3---3---3--3---5----5----7----7---|
D|-1---1---1------0---1---1---1---0--0---|-1---1---1---1--1---3----3----5----5---|
A|---------------------------------------|---------------------------------------| 
E|---------------------------------------|---------------------------------------|
            
Hard to play? Try these video lessons and learn fast. | Correct




comments powered by Disqus
↑ Back to top | Tablatures and chords are parodies/interpretations of the original songs. You may use it for private study, scholarship, research or language learning purposes only