» » »

Two Kids Bass tabs (ver.1)

Artists:  A B C D E F G H I J K L M N O P Q R S T U V W X Y Z # 

Two Kids Bass tabs (ver.1)

Priestess
Rating:
5/5 (4 votes)

Hard to play? Try these video lessons and learn fast.
                -----------------------------------------------------------------------
-----------------------------------------------------------------------

Tuning: Standard

| /  slide up
| \  slide down
| h  hammer-on
| p  pull-off
| ~  vibrato
| +  harmonic
| x  Mute note


Main Riff – X3

G|---------------------------------------------------|
D|---------------------------------------------------|
A|---------6-------8------------------6--8----6------|
E|-8-8-6-8---8-6-8---8-6-8-3--8-8-6-8-------8---6----|

  Verse – X2
G|------------------------------------------------------------------------|
D|------------------------------------------------------------------------|
A|-----------------------------------------------8----6----3-3-3-3-3-3-3--|
E|--8--8--8--8--8--8--8--8--8--8--8--8--8--8--8-----8---6-----------------|

G|-------------|
D|-------------|
A|---1----3-1--|
E|-3--4-4------|

   Bridge – X1
G|----------------------------------------------------------|
D|----------------------------------------------------------|
A|-------------------------------10---------------3-1-------|
E|-4-4-4-4-4-4-4-4-4-4-4-4-4-4-4----4-4-4-4-4-4-4-----4-3---|

G|---------------------------------------------------|
D|---------------------------------------------------|
A|---------6-------8------------------6--8----6------|
E|-8-8-6-8---8-6-8---8-6-8-3--8-8-6-8-------8---6----|

Verse – X2
G|------------------------------------------------------------------------|
D|------------------------------------------------------------------------|
A|-----------------------------------------------8----6----3-3-3-3-3-3-3--|
E|--8--8--8--8--8--8--8--8--8--8--8--8--8--8--8-----8---6-----------------|

G|-------------|
D|-------------|
A|---1----3-1--|
E|-3--4-4------|





   Bridge – X1
G|----------------------------------------------------------|
D|----------------------------------------------------------|
A|-------------------------------10---------------3-1-------|
E|-4-4-4-4-4-4-4-4-4-4-4-4-4-4-4----4-4-4-4-4-4-4-----4-3---|

Use verse during solo might be a little different not 
to find out.

Bridge – X1  A Little Different 
G|----------------------------------------------------------|
D|----------------------------------------------------------|
A|-------------------------------10---------------3-1-------|
E|-4-4-4-4-4-4-4-4-4-4-4-4-4-4-4----4-4-4-4-4-4-4-----4-3---|

Main Riff – X1
G|---------------------------------------------------|
D|---------------------------------------------------|
A|---------6-------8------------------6--8----6------|
E|-8-8-6-8---8-6-8---8-6-8-3--8-8-6-8-------8---6----|

G|-------------|
D|-------------|
A|---1----3-1--|
E|-3--4-4------|

      Bridge – X1
G|----------------------------------------------------------|
D|----------------------------------------------------------|
A|-------------------------------10---------------3-1-------|
E|-4-4-4-4-4-4-4-4-4-4-4-4-4-4-4----4-4-4-4-4-4-4-----4-3---|


E|---------------------------------------|
B|---------------------------------------|
G|---------------------------------------|
D|---------------------------------------|
A|---------------------------------------|
E|--8--8--8--8--8--8--8--8--8--8--8--8---|

===============================================================================
            
Hard to play? Try these video lessons and learn fast. | Correct




comments powered by Disqus
↑ Back to top | Tablatures and chords are parodies/interpretations of the original songs. You may use it for private study, scholarship, research or language learning purposes only