» » »

Priestess, Time Will Cut You Down Tabs (ver.1)

Artists:  A B C D E F G H I J K L M N O P Q R S T U V W X Y Z # 

Time Will Cut You Down Tabs (ver.1)

Priestess Tabs
 Rating:
4/5 (8 votes)
Time Will Cut You Down lessons Tabs too difficult? Try these video lessons and learn fast
1
                Song – Time Will Cut You Down
Album – Hello Master
Artist - Priestess

User: Priestess632

PM. = *

  Intro – X1
E|---------------------------------------------------------------|
B|---------------------------------------------------------------|
G|-8--8-8-8--8--8-8-8--8--8-8-8--8--8-8-8--8--8-8-8--8--8-8-8--8-|
D|-8--8-8-8--8--8-8-8--8--8-8-8--8--8-8-8--8--8-8-8--8--8-8-8--8-|
A|-6--6-6-6--6--6-6-6--6--6-6-6--6--6-6-6--6--6-6-6--6--6-6-6--6-|
E|---------------------------------------------------------------|
  PM.       *   *    *             *    *   *              *   *   *              *    * 
 *             *    *    *             *    *   *

E|-------|
B|-------|
G|-8-8-8-|
D|-8-8-8-|
A|-6-6-6-|
E|-------|
*  *   *
     Verse – X1
B|-------------------------------------------------------|
G|-8--8-8-8--8--8-8-8--8--8-8-8--8--8-8-8--8--8-8-8--8---|
D|-8--8-8-8--8--8-8-8--8--8-8-8--8--8-8-8--8--8-8-8--8---|
A|-6--6-6-6--6--6-6-6--6--6-6-6--6--6-6-6--6--6-6-6--6---|
E|-------------------------------------------------------|
              *   *  *           *   *  *           *  *   *           *   *  *          
*  *   *


E|---------------------------------------------------------------|
B|---------------------------------------------------------------|
G|-8-8-8--8--8-8-8--8--8-8-8--8--8-8-8--8--8-8-8--8--8-8-8--8----|
D|-8-8-8--8--8-8-8--8--8-8-8--8--8-8-8--8--8-8-8--8--8-8-8--8----|
A|-6-6-6--6--6-6-6--6--6-6-6--6--6-6-6--6--6-6-6--6--6-6-6--6----|
E|---------------------------------------------------------------|
       *   *  *           *   *  *           *   *  *           *  *   *           *   * 
*           *  *   *

E|--------------------------------------|
B|--------------------------------------|
G|-8-8-8--8--8-8-8----------------------|
D|-8-8-8--8--8-8-8---8-8-8-8-8-8-8-8-8-8|
A|-6-6-6--6--6-6-6---8-8-8-8-8-8-8-8-8-8|
E|-------------------6-6-6-6-6-6-6-6-6-6|
       *  *   *           *   *  *


Chorus - X2
E|-----------------------|
B|-----------------------|
G|-8-8-8-8-8-------------|
D|-8-8-8-8-8-6-6---------|
A|-6-6-6-6-6-6-6--8-6---6|
E|-----------4-4------8--|

 Break - X1
E|---------------------------------------------------------------|
B|---------------------------------------------------------------|
G|-8-8-8-8-8-10-11-12-13-------------8-8-------------------------|
D|-8-8-8-8-8-10-11-12-13-------8-8---8-8-11-11-11-11-11-11-11-11-|
A|-6-6-6-6-6--8--9-10-11---5-8---8---6-6-9--9--9--9—-9---9--9--9-|
E|-----------------------6-------6-------------------------------|

E|---------|
B|---------|
G|---------|
D|---------|
A|-11-11---|
E|--9--9---|


     Verse – X1
B|-------------------------------------------------------|
G|-8--8-8-8--8--8-8-8--8--8-8-8--8--8-8-8--8--8-8-8--8---|
D|-8--8-8-8--8--8-8-8--8--8-8-8--8--8-8-8--8--8-8-8--8---|
A|-6--6-6-6--6--6-6-6--6--6-6-6--6--6-6-6--6--6-6-6--6---|
E|-------------------------------------------------------|
              *   *  *           *   *  *           *  *   *           *   *  *          
*  *   *


E|---------------------------------------------------------------|
B|---------------------------------------------------------------|
G|-8-8-8--8--8-8-8--8--8-8-8--8--8-8-8--8--8-8-8--8--8-8-8--8----|
D|-8-8-8--8--8-8-8--8--8-8-8--8--8-8-8--8--8-8-8--8--8-8-8--8----|
A|-6-6-6--6--6-6-6--6--6-6-6--6--6-6-6--6--6-6-6--6--6-6-6--6----|
E|---------------------------------------------------------------|
       *   *  *           *   *  *           *   *  *           *  *   *           *   * 
*           *  *   *

E|--------------------------------------|
B|--------------------------------------|
G|-8-8-8--8--8-8-8----------------------|
D|-8-8-8--8--8-8-8---8-8-8-8-8-8-8-8-8-8|
A|-6-6-6--6--6-6-6---8-8-8-8-8-8-8-8-8-8|
E|-------------------6-6-6-6-6-6-6-6-6-6|
       *  *   *           *   *  *
Chorus - X2
E|-----------------------|
B|-----------------------|
G|-8-8-8-8-8-------------|
D|-8-8-8-8-8-6-6---------|
A|-6-6-6-6-6-6-6--8-6---6|
E|-----------4-4------8--|

Break - X1
E|---------------------------------------------------------------|
B|---------------------------------------------------------------|
G|-8-8-8-8-8-10-11-12-13-------------8-8-------------------------|
D|-8-8-8-8-8-10-11-12-13-------8-8---8-8-11-11-11-11-11-11-11-11-|
A|-6-6-6-6-6--8--9-10-11---5-8---8---6-6-9--9--9--9—-9---9--9--9-|
E|-----------------------6-------6-------------------------------|

E|---------|
B|---------|
G|---------|
D|---------|
A|-11-11---|
E|--9--9---|


Solo – I Didn’t Figure It Out – Do Verse During Solo May Be A Little Different But Not 
To Figure Out.

E|----------------------------------------------|
B|----------------------------------------------|
G|-8------------------8-------------------------|
D|-8------------------8----8-8-8-8-8-8-8-8-8-8--|
A|-6------------------6----8-8-8-8-8-8-8-8-8-8--|
E|-------------------------6-6-6-6-6-6-6-6-6-6--|


Chorus - X2
E|-----------------------|
B|-----------------------|
G|-8-8-8-8-8-------------|
D|-8-8-8-8-8-6-6---------|
A|-6-6-6-6-6-6-6--8-6---6|
E|-----------4-4------8--|


Ending – Like The Verse But A Little Different Easy To Figure Out
B|-------------------------------------------------------|
G|-8--8-8-8--8--8-8-8--8--8-8-8--8--8-8-8--8--8-8-8--8---|
D|-8--8-8-8--8--8-8-8--8--8-8-8--8--8-8-8--8--8-8-8--8---|
A|-6--6-6-6--6--6-6-6--6--6-6-6--6--6-6-6--6--6-6-6--6---|
E|-------------------------------------------------------|
              *   *  *           *   *  *           *  *   *           *   *  *          
*  *   *


E|---------------------------------------------------------------|
B|---------------------------------------------------------------|
G|-8-8-8--8--8-8-8--8--8-8-8--8--8-8-8--8--8-8-8--8--8-8-8--8----|
D|-8-8-8--8--8-8-8--8--8-8-8--8--8-8-8--8--8-8-8--8--8-8-8--8----|
A|-6-6-6--6--6-6-6--6--6-6-6--6--6-6-6--6--6-6-6--6--6-6-6--6----|
E|---------------------------------------------------------------|
       *   *  *           *   *  *           *   *  *           *  *   *           *   * 
*           *  *   *

E|--------------------------------------|
B|--------------------------------------|
G|-8-8-8--8--8-8-8----------------------|
D|-8-8-8--8--8-8-8---8-8-8-8-8-8-8-8-8-8|
A|-6-6-6--6--6-6-6---8-8-8-8-8-8-8-8-8-8|
E|-------------------6-6-6-6-6-6-6-6-6-6|
       *  *   *           *   *  *
            
Submit corrections

comments powered by Disqus
↑ Back to top | Priestess Tabs for Time Will Cut You Down. Lyrics for acoustic guitar and electric guitar. 1 Tablatures and chords are parodies/interpretations of the original songs. You may use it for private study, scholarship, research or language learning purposes only