» » »

Priestess, Run Home Bass tabs (ver.2)

Artists:  A B C D E F G H I J K L M N O P Q R S T U V W X Y Z # 

Run Home Bass tabs (ver.2)

Priestess Tabs
 Rating:
4/5 (4 votes)
Run Home lessons Tabs too difficult? Try these video lessons and learn fast
1
                Here's my bass tab of Run home by Priestess. Tuning half step down (low to high:
D#-G#-C#-F#) and its al 4/4. I'm not 100% about the solo, but it sounds good to me. If you want

Intro (come in at 0:15)

F#|----------------------------------------------------------------|
C#|o--------------------------------------------------------------o|
G#|o-----------------------------------------5-5-5-5-7-7----------o|
F#|--0-0-0-0-0-0-0-0-0-0-0-3-3-3-3-3-5-5-5-5-------------35-5-5-5--|

Verse

F#|----------------------------------------------------------------|
C#|o--------------------------------------------------------------o|
G#|o-----------------------------------------5-5-5-5-7-7----------o|
F#|--0-0-0-0-0-0-0-0-0-0-0-3-3-3-3-3-5-5-5-5-------------35-5-5-5--|

Pre-Chorus

F#|-----------------------------------------------------------------|
C#|-----------------------------------------------------------------|
G#|-----------------------------------------------------------------|
F#|--3-3-3-3-3-3-3-3-3-3-3-3-3-3-3-0-0-0-0-0-0-0-0-0-0-0-0-0-0-0-0--|

F#|-----------------------------------------------------------------|
C#|-----------------------------------------------------------------|
G#|-----------------------------------------------------------------|
F#|--3-3-3-3-3-3-3-3-3-3-3-3-3-3-3-5-5-5-5-5-5-5-5-5-5-5-5-5-5-5-5--|

Chorus

F#|-------|
C#|-------|
G#|-------|
F#|--12\--|

F#|-------------------------------------------------------------------|
C#|-------------------------------------------------------------------|
G#|-------------------------------------------------------------------|
F#|--0-0-0-0-0-0-0-0-2-2-2-2-2-2-2-2-3-3-3-3-3-3-3-3-0-0-0-0-0-0-0-0--|

F#|--------------------------------------------------------------|
C#|--------------------------------------------------------------|
G#|---------------------------------------------------5----------|
F#|--0-0-0-0-0-0-0-0-2-2-2-2-2-2-2-2-3-3-3-3-3-3-3-3------3---0--|

Verse 2 (no bass)

Pre-chorus

F#|------------------------------------------------------------------|
C#|------------------------------------------------------------------|
G#|------------------------------------------------------------------|
F#|-8\3-3-3-3-3-3-3-3-3-3-3-3-3-3-3-0-0-0-0-0-0-0-0-0-0-0-0-0-0-0-0--|

F#|-----------------------------------------------------------------|
C#|-----------------------------------------------------------------|
G#|-----------------------------------------------------------------|
F#|--3-3-3-3-3-3-3-3-3-3-3-3-3-3-3-5-5-5-5-5-5-5-5-5-5-5-5-5-5-5-5--|

Chorus

F#|-------------------------------------------------------------------|
C#|-------------------------------------------------------------------|
G#|-------------------------------------------------------------------|
F#|--0-0-0-0-0-0-0-0-2-2-2-2-2-2-2-2-3-3-3-3-3-3-3-3-0-0-0-0-0-0-0-0--|

F#|----------------------------------------------------------------|
C#|----------------------------------------------------------------|
G#|---------------------------------------------------5------------|
F#|--0-0-0-0-0-0-0-0-2-2-2-2-2-2-2-2-3-3-3-3-3-3-3-3------3---0--0-|

Guitar solo

F#|-----------------------------------| 4 times
C#|o---------------------------------o|
G#|o---------------------------------o|
F#|--0-0-0~~-5-5-5~~-3-3-3~~-4-4-4~~--|

Verse 3

F#|--------|--------|
C#|o-------|-------o| 4x
G#|o-------|-------o|
F#|--------|--------|

F#|----------------------------------------------------------------|
C#|----------------------------------------------------------------|
G#|------------------------------------------5-5-5-5-7-7-----------|
F#|--0-0-0-0-0-0-0-0-0-0-0-3-3-3-3-3-5-5-5-5-------------35-5-5-5--|

Pre-Chorus

F#|-----------------------------------|
C#|o---------------------------------o|
G#|o---------------------------------o|
F#|--3-3-3-3-3-3-3-3-3-3-3-3-3-3-3-3--|

Chorus/outro

F#|-----------------------------------|\------ \
C#|o------------------------------------ |---- \
G#|o-0-0-0-0-0-0-0-0-2-2-2-2-2-2-2-2---- | --- \
F#|------------------------------------- |  -- \
                                           | repeat three times, fourth time
F#|------------------------------------------------- |   /  play this
C#|----------------------------------o|  /        -- |
G#|--3-3-3-3-3-3-3-3-0-0-0-0-0-0-0-0-o| /         -- |
F#|-----------------------------------|/          -- |
                                                   |
                                                   |
F#|-----------------------------------|           -- |
C#|-----------------------------------|           -- |
G#|--0-0-0-0-0-0-0-0-2-2-2-2-2-2-2-2--|     <------- |
F#|------------------------------------------------- |

F#|----------------------------------------|
C#|----------------------------------------|
G#|--3-3-3-3-3-3-3-3-0-0-0-0-0-0-0-0-0~~~--|
F#|----------------------------------------|
            
Submit corrections

comments powered by Disqus
↑ Back to top | Priestess Bass for Run Home. Lyrics for acoustic guitar and electric guitar. 1 Tablatures and chords are parodies/interpretations of the original songs. You may use it for private study, scholarship, research or language learning purposes only