>
 >
Run Home

Run Home Guitar Tabs

Priestess - Run Home chords, tabs, tablatures, lyrics

Guitar lessons | Add/correct | Request | Top 50 tabs Artists:  A B C D E F G H I J K L M N O P Q R S T U V W X Y Z 0-9

Run Home Guitar Tabs – Priestess

CD, Sheet music, Poster

Do you like Run Home? Share with your friends now
Bass TabsBass Tabs v2Tabs
Priestess - Run Home (from Hello Master, 2005)


First of all, tune your guitar about half a step lower. You can use that bass part for 
your low E string.

E|------------|
B|------------|
G|------------|
D|------------|
A|---5/7tr----|    - tr=tremolo (rapidly picked notes)
E|------------|

+ feedback


Bass part:

G|------------------|-----------------|-----------------|-----------------|
D|------------------|-----------------|-----------------|-----------------|
A|------------------|-----------------|---------5-5-5-5-|-7-7-------------|
E|--0-0-0-0-0-0-0-0-|-0-0-0-3-3-3-3-3-|-5-5-5-5---------|-----3-5---5-5-5-|

Some guitar feedback


Guitar verse:

     E        G5     E      G5  - -      A       D         E   G A
E|-----------3--3--|--0-0----3--3-3--|-----------------|------------|
B|-----------3--3--|--0-0----3--3-3--|----------3-3----|------------|
G|--1-1------0--0--|--1-1----0--0-0--|--2-2--x--2-2--x-|--9-9-------|
D|--2-2---x--0--0--|--2-2----0--0-0--|--2-2--x--0-0--x-|--9-9--5-7--|     x2
A|--2-2---x--x--x--|--2-2----x--x-x--|--0-0--x---------|--7-7--5-7--|
E|--0-0---x--3--3--|--0-0----3--3-3--|-----------------|-------3-5--|


An alternative way to play this riff:

     E      G       E     G -  -      A       D       E   G A
E|--------------|-----------------|-----------------------------|
B|--------8--8--|--------8--8--8--|-----------------------------|
G|--9-9---7--7--|--9-9---7--7--7--|----------7-7--x--9-9--------|
D|--9-9---5--5--|--9-9---5--5--5--|--7-7--x--7-7--x--9-9--5-7---|
A|--7-7---5--5--|--7-7---5--5--5--|--7-7--x--5-5--x--7-7--5-7---|
E|--0-0---------|--0-0------------|--5-5--x---------------3-5---|


--------------------

Part B:

Guitar 1 (left channel)
     D        D        E
E|---------|-------|------------------|-----------------|
B|---------|-------|------------------|-----------------|
G|---7-----|--7----|--9-9--7b9r7-6-4--|-----7b9r7--6-4--|
D|---7-x8--|--7-x8-|--9-9-------------|-6---------------|
A|---5-----|--5----|--7-7-------------|-----------------|
E|---------|-------|--0-0-------------|-----------------|

     G         G          A            A
E|---------|---------|------------|------------|
B|---------|---------|------------|------------|
G|---------|---------|---2--2--2--|---2--2--2--|
D|---5-----|---5-----|---2--2--2--|---2--2--2--|
A|---5-x8--|---5-x8--|---0--0--0--|---0--0--0--|
E|---3-----|---3-----|------------|------------|


Guitar 2 (right channel)
      D        D
E|---------|--------------------|------------------|-------------------|
B|---------|---------5b7r5-5-3--|--5---------------|-------------------|
G|---7-----|---7----------------|------------------|-------------------|
D|---7-x8--|---7-x3-------------|------4b5r4--2-0--|---2--4b5r4--2--0--|
A|---5-----|---5----------------|------------------|-------------------|
E|---------|--------------------|------------------|-------------------|

     G
E|---------|---------|------------|------------|
B|---------|---------|------------|------------|
G|---------|---------|---2--2--2--|---2--2--2--|
D|---5-----|---5-----|---2--2--2--|---2--2--2--|
A|---5-x8--|---5-x8--|---0--0--0--|---0--0--0--|
E|---3-----|---3-----|------------|------------|


--------------------------


Chorus:

     E           F#         F#          E
E|---------|----------|----------|----------|
B|---------|----------|----------|----------|
G|---9-----|---11-----|---11-----|---9------|
D|---9-x8--|---11-x8--|---11-x8--|---9-x8---|
A|---7-----|---9------|---9------|---7------|
E|---------|----------|----------|----------|
    Run       home       I'm        gone

     E          F#        F#                     E
E|---------|----------|----------------------|---------|
B|---------|----------|----------------------|---------|
G|---9-----|---11-----|---11-----11--11--11--|---9-----|
D|---9-x8--|---11-x8--|---11-x4--11--11--11--|---9-----|
A|---7-----|---9------|---9------9---9---9---|---7-----|
E|---------|----------|----------------------|---------|
     Run      home         I'm                  gone


----------------

Verse 2:


     E        G5     E      G5  - -      A       D         E   G A
E|--0-0------3--3--|--0-0----3--3-3--|-----------------|------------|
B|--0-0------3--3--|--0-0----3--3-3--|----------3-3----|------------|
G|--1-1------0--0--|--1-1----0--0-0--|--2-2--x--2-2--x-|--9-9-------|
D|--2-2---x--0--0--|--2-2----0--0-0--|--2-2--x--0-0--x-|--9-9--5-7--|     x2
A|--2-2---x--x--x--|--2-2----x--x-x--|--0-0--x---------|--7-7--5-7--|
E|--0-0---x--3--3--|--0-0----3--3-3--|-----------------|-------3-5--|


-------------------

Part B:


Guitar 1 (left channel)
     D        D        E
E|---------|-------|------------------|-----------------|
B|---------|-------|------------------|-----------------|
G|---7-----|--7----|--9-9--7b9r7-6-4--|-----7b9r7--6-4--|
D|---7-x8--|--7-x8-|--9-9-------------|-6---------------|
A|---5-----|--5----|--7-7-------------|-----------------|
E|---------|-------|--0-0-------------|-----------------|

     G         G          A            A
E|---------|---------|------------|------------|
B|---------|---------|------------|------------|
G|---------|---------|---2--2--2--|---2--2--2--|
D|---5-----|---5-----|---2--2--2--|---2--2--2--|
A|---5-x8--|---5-x8--|---0--0--0--|---0--0--0--|
E|---3-----|---3-----|------------|------------|


Guitar 2 (right channel)
      D        D
E|---------|--------------------|------------------|-------------------|
B|---------|---------5b7r5-5-3--|--5---------------|-------------------|
G|---7-----|---7----------------|------------------|-------------------|
D|---7-x8--|---7-x3-------------|------4b5r4--2-0--|---2--4b5r4--2--0--|
A|---5-----|---5----------------|------------------|-------------------|
E|---------|--------------------|------------------|-------------------|

     G
E|---------|---------|------------|------------|
B|---------|---------|------------|------------|
G|---------|---------|---2--2--2--|---2--2--2--|
D|---5-----|---5-----|---2--2--2--|---2--2--2--|
A|---5-x8--|---5-x8--|---0--0--0--|---0--0--0--|
E|---3-----|---3-----|------------|------------|


-------------------


Chorus:

     E           F#         F#          E
E|---------|----------|----------|----------|
B|---------|----------|----------|----------|
G|---9-----|---11-----|---11-----|---9------|
D|---9-x8--|---11-x8--|---11-x8--|---9-x8---|
A|---7-----|---9------|---9------|---7------|
E|---------|----------|----------|----------|
    Run       home       I'm        gone

     E          F#        F#                     E
E|---------|----------|----------------------|---------|
B|---------|----------|----------------------|---------|
G|---9-----|---11-----|---11-----11--11--11--|---9-----|
D|---9-x8--|---11-x8--|---11-x4--11--11--11--|---9-----|
A|---7-----|---9------|---9------9---9---9---|---7-----|
E|---------|----------|----------------------|---------|
     Run      home         I'm                  gone

Notice that this last E bar is only two beats on the second time
(instead of four beats)

--------------

Part C:

Guitar 1 (left channel)

E|-----------------|-----------------|------------------|-----------------|
B|-------------10--|-----------------|-------------10---|-----------------|
G|---------7-9-9---|--7--7--6-7p6----|---------7-9-9----|--7--7--6-7p6----|
D|--7---10---------|--------------7--|--7---10----------|--------------7--|
A|-----------------|-----------------|------------------|-----------------|
E|-----------------|-----------------|------------------|-----------------|


E|-----------------|-----------------|----------------|---------------------|
B|-------------10--|-----------------|----------------|--5----5----5----5---|
G|---------7-9-9---|--7--7--6-7p6----|--------7-9-9---|--7b9--7b9--7b9--7b9-|
D|--7---10---------|--------------7--|--7--10---------|---------------------|
A|-----------------|-----------------|----------------|---------------------|
E|-----------------|-----------------|----------------|---------------------|

Guitar 2 (right channel)

E|---------------|--------------------|---------------|---------------------|
B|---------------|--------------------|---------------|---------------------|
G|---------------|--------------------|---------------|---------------------|
D|-----------11--|--------------------|------------11-|---------------------|
A|-----12h14-----|--12--12-10-12p10---|------12h14----|--12--12-10-12p10----|
E|--12-----------|-----------------12-|--12-----------|------------------12-|


E|----------------|---------------------|-------------|-----------3----3----|
B|----------------|---------------------|-------------|--3---3----6b8--6b8--|
G|----------------|---------------------|--------5b7--|--5b7-5b7------------|
D|-----------11---|---------------------|----3h5------|---------------------|
A|-----12h14------|--12--12-10--12p10---|--5----------|---------------------|
E|--12------------|------------------12-|-------------|---------------------|


---------------


Verse riff again

     E        G5     E      G5  - -      A       D         E   G A
E|--0-0------3--3--|--0-0----3--3-3--|-----------------|------------|
B|--0-0------3--3--|--0-0----3--3-3--|----------3-3----|------------|
G|--1-1------0--0--|--1-1----0--0-0--|--2-2--x--2-2--x-|--9-9-------|
D|--2-2---x--0--0--|--2-2----0--0-0--|--2-2--x--0-0--x-|--9-9--5-7--|     x3
A|--2-2---x--x--x--|--2-2----x--x-x--|--0-0--x---------|--7-7--5-7--|
E|--0-0---x--3--3--|--0-0----3--3-3--|-----------------|-------3-5--|

4 bars of D

E|---------|---------|---------|---------|
B|---------|---------|---------|---------|
G|---7-----|---7-----|---7-----|---7-----|
D|---7-x8--|---7-x8--|---7-x8--|---7-x8--|
A|---5-----|---5-----|---5-----|---5-----|
E|---------|---------|---------|---------|


----------------------------


Chorus, this time with different chords

     A         G          G          A
E|---------|----------|----------|---------|
B|---------|----------|----------|---------|
G|---------|----------|----------|---------|
D|---7-----|---5------|---5------|---7-----|
A|---7-x8--|---5-x8---|---5-x8---|---7-x8--|
E|---5-----|---3------|---3------|---5-----|


     A         G          G          A
E|---------|----------|----------|---------|
B|---------|----------|----------|---------|
G|---------|----------|----------|---------|
D|---7-----|---5------|---5------|---7-----|
A|---7-x8--|---5-x8---|---5-x8---|---7-x8--|
E|---5-----|---3------|---3------|---5-----|


Repeat those two lines if playing rhythm.
Lead guitars join on the second time (see part C) for those last 8 bars.

Last chord is an A5.
E|----------|
B|----------|
G|---2------|
D|---2------|
A|---0------|
E|----------|


Use your ears if something seems strange.

------------------------------





Comments


Popular Priestess tabs & chords
Lay Down 3 Bass Tabs
Blood Tabs
Everything That You Are Tabs
I Am The Night, Colour Me Black Tabs
I Am The Night, Colour Me Black 1 Tabs
Lay Down 2 Tabs
Performance 1 Tabs
Talk To Her Intro Tabs
Time Will Cut You Down Tabs
Lay Down Ukulele


Song lyrics



↑ Back to top | Tablatures and chords are parodies/interpretations of the original songs. You may use it for private study, scholarship, research or language learning purposes only
© 2014 AZChords.com Contact us | Privacy policy | DMCA | Add/correct tabs | Request tabs | Top 50 tabs