» » »

No Real Pain Bass tabs (ver.1)

Artists:  A B C D E F G H I J K L M N O P Q R S T U V W X Y Z # 

No Real Pain Bass tabs (ver.1)

Priestess
Rating:
5/5 (2 votes)

Hard to play? Try these video lessons and learn fast.
                -------------------------------------------------------------------------------
-------------------------------------------------------------------------------



  Main Riff – X1
G|--------------------------------------------------|
D|--------------------------------------------------|
A|------------------------------------3-1-1-1-1-1---|
E|-3-3-3-3-3-3-3-3-3-3-3-3-3-3-3--3-3---------------|

  Verse – X2
G|--------------------------------------------------|
D|--------------------------------------------------|
A|------------------------------------3-1-1-1-1-1---|
E|-3-3-3-3-3-3-3-3-3-3-3-3-3-3-3--3-3---------------|

  Break – X1
G|---------------------------------------------------------|
D|---------------------------------------------------------|
A|-3-3-3-3-3-3-3--1-------------1-3--1-------------1-3-----|
E|------------------3-3-1-3-1-3--------3-3-1-3-1-3---------|

  Verse – X2
G|--------------------------------------------------|
D|--------------------------------------------------|
A|------------------------------------3-1-1-1-1-1---|
E|-3-3-3-3-3-3-3-3-3-3-3-3-3-3-3--3-3---------------|

  Break – X1
G|---------------------------------------------------------|
D|---------------------------------------------------------|
A|-3-3-3-3-3-3-3--1-------------1-3--1-------------1-3-----|
E|------------------3-3-1-3-1-3--------3-3-1-3-1-3---------|

Pre- Chorus – X1
G|-------------------------------|
D|-------------------------------|
A|-1-1-1-1-1-1-1--3-3-3-3-3-3-3--|
E|-------------------------------|
  
Chorus – X3
G|----------------------|
D|----------------------|
A|-----5-5-5-5-5-5-5-5--|
E|-3-3------------------|

  After Chorus – X1
G|--------------------|
D|--------------------|
A|-1-3----------------|
E|-----3--------------|

  Verse – X2
G|--------------------------------------------------|
D|--------------------------------------------------|
A|------------------------------------3-1-1-1-1-1---|
E|-3-3-3-3-3-3-3-3-3-3-3-3-3-3-3--3-3---------------|


Break – X1
G|---------------------------------------------------------|
D|---------------------------------------------------------|
A|-3-3-3-3-3-3-3--1-------------1-3--1-------------1-3-----|
E|------------------3-3-1-3-1-3--------3-3-1-3-1-3---------|


Pre- Chorus – X1
G|-------------------------------|
D|-------------------------------|
A|-1-1-1-1-1-1-1--3-3-3-3-3-3-3--|
E|-------------------------------|

Chorus – X3
G|----------------------|
D|----------------------|
A|-----5-5-5-5-5-5-5-5--|
E|-3-3------------------|

G|------------|
D|------------|
A|-1-3--------|
E|-----3------|

Solo– X4  I Did Not Figure Out The Solo Sorry
G|---------------------------------------------------------|
D|---------------------------------------------------------|
A|-1--------------1-3--------------1-3---------------------|
E|---3-3-1-3-1-3-----3-3-1-3-1-3--------3-3-1-3-1-3--------|

After Solo – X1
G|-----------------------|
D|-----------------------|
A|-3x1-3x1-x1-x1-x1-x1---|
E|-----------------------|

Chorus – X3
G|----------------------|
D|----------------------|
A|-----5-5-5-5-5-5-5-5--|
E|-3-3------------------|

  X1
G|----------|
D|----------|
A|-1-3------|
E|-----3----|

Chorus – X3
G|----------------------|
D|----------------------|
A|-----5-5-5-5-5-5-5-5--|
E|-3-3------------------|

 Ending - X1
G|-----------------|
D|-----------------|
A|-1-3-1-3-1-3-----|
E|-------------3---|

======================================================================
            
Hard to play? Try these video lessons and learn fast. | Correct




comments powered by Disqus
↑ Back to top | Tablatures and chords are parodies/interpretations of the original songs. You may use it for private study, scholarship, research or language learning purposes only