» » »

Priestess, Living Like A Dog Bass tabs (ver.1)

Artists:  A B C D E F G H I J K L M N O P Q R S T U V W X Y Z # 

Living Like A Dog Bass tabs (ver.1)

Priestess Tabs
Rating:
5/5 (1 vote)
Living Like A Dog lessons Tabs too difficult? Try these video lessons and learn fast
                

  Main Riff – X1
G|------------------------------------------------------|
D|------------------------------------------------------|
A|-7-5---5-7----7-5---5-7----7-5---5-7----7-5---5-7-----|
E|-----7-----7------7-----7------7-----7------7-----7---|
  
  Verse – X5 
G|----------------------------------------|
D|----------------------------------------|
A|-7-5---5-7----7-5---5-7----7-5---5-7----|
E|-----7-----7------7-----7------7-----7--|

 Chorus – X1
G|--------------------------------------|
D|--------------------------------------|
A|----------2-2-2-2-2--5-5-5-5--7-7-7-7-|
E|-2-0-2-0------------------------------|

  Main Riff – X1
G|------------------------------------------------------|
D|------------------------------------------------------|
A|-7-5---5-7----7-5---5-7----7-5---5-7----7-5---5-7-----|
E|-----7-----7------7-----7------7-----7------7-----7---|

  Verse – X5 
G|----------------------------------------|
D|----------------------------------------|
A|-7-5---5-7----7-5---5-7----7-5---5-7----|
E|-----7-----7------7-----7------7-----7--|

Chorus – X1
G|--------------------------------------|
D|--------------------------------------|
A|----------2-2-2-2-2--5-5-5-5--7-7-7-7-|
E|-2-0-2-0------------------------------|

  Break – Do This For A Long Time 
G|------------------------------------------------------|
D|------------------------------------------------------|
A|-2-2-2-2-2-2-2-2-2-2-2-2-2-2-2-2-2-2-2-2-2-2-2-2-2-2--|
E|------------------------------------------------------|

Verse – X4
G|----------------------------------------|
D|----------------------------------------|
A|-7-5---5-7----7-5---5-7----7-5---5-7----|
E|-----7-----7------7-----7------7-----7--|
  
Chorus – X1
G|--------------------------------------|
D|--------------------------------------|
A|----------2-2-2-2-2--5-5-5-5--7-7-7-7-|
E|-2-0-2-0------------------------------|
   
     Ending – X1
G|--------------------------------------|
D|--------------------------------------|
A|-7-5---5-7---7-5----------------------|
E|-----7-----7-----7-7------------------|
            

comments powered by Disqus
↑ Back to top | Priestess Bass for Living Like A Dog. Lyrics for acoustic guitar and electric guitar. Tablatures and chords are parodies/interpretations of the original songs. You may use it for private study, scholarship, research or language learning purposes only