>
 >
I Am The Night, Colour Me Black 1

I Am The Night, Colour Me Black 1 Guitar Tabs

Priestess - I Am The Night, Colour Me Black 1 chords, tabs, tablatures, lyrics

Guitar lessons | Add/correct | Request | Top 50 tabs Artists:  A B C D E F G H I J K L M N O P Q R S T U V W X Y Z 0-9

I Am The Night, Colour Me Black 1 Guitar Tabs – Priestess

CD, Sheet music, Poster

Do you like I Am The Night, Colour Me Black 1? Share with your friends now
TabsTabs v2
I Am The Night, Colour Me Black


Ok I was having trouble tabbing this for a while and finally decided to retune my
the solo.

If youíve seen my first version you will notice that a few riffs are the same but Iíve
about half the song (mainly because of the new tuning).

The new tuning is a mix between Dropped D and a Half step down. Iíve only been playing
about 3 years now and I donít know if this has a name.

Eb
Bb
F#
C#
G#
C#

Intro
|-----------------------|
|-----------------------|
|-----------------------| x12
|-0--0--0--0--0--0--0-3-|
|-0--0--0--0--0--0--0-3-|
|-0--0--0--0--0--0--0-3-|

|--------------------------|    |------------------|  |--------------------------|
|-----------------------8b-|    |------------------|  |-----------------------8b-|
|-7-7-10-7-7-10-7-7-10-7---| x4 |-5-55555555555555-|  |-7-7-10-7-7-10-7-7-10-7---| x4
|-7-7-10-7-7-10-7-7-10-7---|    |-5-55555555555555-|  |-7-7-10-7-7-10-7-7-10-7---|
|--------------------------|    |-3-33333333333333-|  |--------------------------|
|--------------------------|    |------------------|  |--------------------------|

Verse 1
|------------------------------|
|------------------------------|
|-7-7-10-7-7-10-7-7-10-7-10-10-| x4
|-7-7-10-7-7-10-7-7-10-7-10-10-|
|------------------------------|
|------------------------------|

|---------------------------|
|---------------------------|
|---------------------------|
|-10--x7--x10--x7---------8-|
|-10--x7--x10--x7---------8-|
|-10--x7--x10--x7-10-7-10---|

Bridge
|---------------------------|
|------------------------8b-|
|-7-7-10-7-7-10-7-7-10-7----| x2
|-7-7-10-7-7-10-7-7-10-7----|
|---------------------------|
|---------------------------|

Verse 2
|------------------------------|    |---------------------------|
|------------------------------|    |---------------------------|
|-7-7-10-7-7-10-7-7-10-7-10-10-| x3 |-7-7-10-7-7-10-7-7-7-7-7-7-|
|-7-7-10-7-7-10-7-7-10-7-10-10-|    |-7-7-10-7-7-10-7-7-7-7-7-7-|
|------------------------------|    |---------------------------|
|------------------------------|    |---------------------------|

|---------------------------|
|---------------------------|
|---------------------------|
|-10--x7--x10--x7---------8-|
|-10--x7--x10--x7---------8-|
|-10--x7--x10--x7-10-7-10---|

Chorus
|-----------------------|    |---------------------|
|-----------------------|    |---------------------|
|-7--x5--x7--x5-------3-| x3 |-7--x5---------------|
|-7--x5--x7--x5-------3-|    |-7--x5--x7--x7-------|
|-5--x3--x5--x3-5-3-5---|    |-5--x3--x7--x7-------|
|-----------------------|    |--------x7--x7-7-5-7-|

|-----------------------------------|
|-----------------------------------|
|-----------------------------------|
|-3-33-33-3-333333-5-55-55-5-555555-|
|-3-33-33-3-333333-5-55-55-5-555555-|
|-3-33-33-3-333333-5-55-55-5-555555-|

|---------------------------|
|------------------------8b-|
|-7-7-10-7-7-10-7-7-10-7----| x2
|-7-7-10-7-7-10-7-7-10-7----|
|---------------------------|
|---------------------------|

Verse 3
|------------------------------|    |------------------------------|
|------------------------------|    |------------------------------|
|------------------------10-10-|    |-7-7-10-7-7-10-7-7-10-7-10-10-| x3
|------------------------10-10-|    |-7-7-10-7-7-10-7-7-10-7-10-10-|
|------------------------------|    |------------------------------|
|------------------------------|    |------------------------------|

|---------------------------|
|---------------------------|
|---------------------------|
|-10--x7--x10--x7---------8-|
|-10--x7--x10--x7---------8-|
|-10--x7--x10--x7-10-7-10---|

Bridge
|---------------------------|
|------------------------8b-|
|-7-7-10-7-7-10-7-7-10-7----|
|-7-7-10-7-7-10-7-7-10-7----|
|---------------------------|
|---------------------------|

Verse 4
|-----------------|    |---------------|
|-----------------|    |---------------|
|-----------------| x3 |---------------|
|-10\-----------8-|    |-10\----3--4-5-|
|-10\-----------8-|    |-10\----3--4-5-|
|-10\-7-10-7-10---|    |-10\----3--4-5-|

|---------------------------|
|---------------------------|
|---------------------------|
|-10--x7--x10--x7---------8-|
|-10--x7--x10--x7---------8-|
|-10--x7--x10--x7-10-7-10---|

Chorus
|-----------------------|    |---------------------|
|-----------------------|    |---------------------|
|-7--x5--x7--x5-------3-| x3 |-7--x5---------------|
|-7--x5--x7--x5-------3-|    |-7--x5--x7--x7-------|
|-5--x3--x5--x3-5-3-5---|    |-5--x3--x7--x7-------|
|-----------------------|    |--------x7--x7-7-5-7-|

|-----------------------------------|
|-----------------------------------|
|-----------------------------------|
|-3-33-33-3-333333-5-55-55-5-555555-|
|-3-33-33-3-333333-5-55-55-5-555555-|
|-3-33-33-3-333333-5-55-55-5-555555-|

|---------------------------|
|------------------------8b-|
|-7-7-10-7-7-10-7-7-10-7----|
|-7-7-10-7-7-10-7-7-10-7----|
|---------------------------|
|---------------------------|

Solo
|----------------------------------------------------------------------|
|-11--10-8--8-11-10-8-11p10p8-8b------------10-------------------------|
|--------------------------------11p10p8p0-------8p7p0----------8\-----|
|---------------------------------------------------------------8\-----|
|----------------------------------------------------------------------|
|----------------------------------------------------------------------|
|                                                                      |
|----------------------------------------------------------------------|
|----------------------------------------------------------------------|
|-----------7-7-10-7-7-10-7-7-10-7-10-10--7-7-10-7-7-10-7-7-10-7-10-10-|
|-3---4--5--7-7-10-7-7-10-7-7-10-7-10-10--7-7-10-7-7-10-7-7-10-7-10-10-|
|-3---4--5-------------------------------------------------------------|
|-3---4--5-------------------------------------------------------------|

|--------------------------------------------------------------|
|---------------------------------------------------15--15-17--|
|---9b---------------11b-----------12b-----15b------17b-17b19b-|
|--------------------------------------------------------------|
|--------------------------------------------------------------|
|--------------------------------------------------------------|
|                                                              |
|--------------------------------------------------------------|
|--------------------------------------------------------------|
|---7-7-10-7-7-10-7-7-10-7-10-10--7-7-10-7-7-10-7-7------------|
|---7-7-10-7-7-10-7-7-10-7-10-10--7-7-10-7-7-10-7-7--3---4--5--|
|----------------------------------------------------3---4--5--|
|----------------------------------------------------3---4--5--|

|--------------------------------------------------------------|
|--------------------------------------------------------------|
|--------------------------------------------------------------|
|--------------------------------------------------------------|
|--------------------------------------------------------------|
|--------------------------------------------------------------|
|                                                              |
|--------------------------------------------------------------|
|--------------------------------------------------------------|
|---7-7-10-7-7-10-7-7-10-7-10-10--7-7-10-7-7-10-7-7-10-7-10-10-|
|---7-7-10-7-7-10-7-7-10-7-10-10--7-7-10-7-7-10-7-7-10-7-10-10-|
|--------------------------------------------------------------|
|--------------------------------------------------------------|

|----------------------------------------------------------------------------|
|----------------------------------------------------------------------------|
|----------------------------------------------------------------------------|
|----------------------------------------------------------------------------|
|----------------------------------------------------------------------------|
|----------------------------------------------------------------------------|
|                                                                            |
|----------------------------------------------------------------------------|
|----------------------------------------------------------------------------|
|---7-7-10-7-7-10-7-7-10-7-10-10--7-7-10-7-7-10-7-7--------------------------|
|---7-7-10-7-7-10-7-7-10-7-10-10--7-7-10-7-7-10-7-7--3---4--5--7---8--9--10\-|
|----------------------------------------------------3---4--5--7---8--9--10\-|
|----------------------------------------------------3---4--5--7---8--9--10\-|

|-------------------------------|
|-10--10--10--10--10--10--10-10-|
|-12b-12b-12b-12b-12b-12b-12b12b|
|-------------------------------|
|-------------------------------|
|-------------------------------|
|                               | x4
|-------------------------------|
|-------------------------------|
|-------------------------------|
|-0---0---0---0---0---0---0--3--|
|-0---0---0---0---0---0---0--3--|
|-0---0---0---0---0---0---0--3--|

|-------------------------------|    |-------------------------------|
|-15--15--15--15--15--15--15-15-|    |-15--15--15--15--15--15--15-15-|
|-17b-17b-17b-17b-17b-17b-17b17b|    |-17b-17b-17b-17b-17b-17b-17b17b|
|-------------------------------|    |-------------------------------|
|-------------------------------|    |-------------------------------|
|-------------------------------|    |-------------------------------|
|                               | x3 |                               |
|-------------------------------|    |-------------------------------|
|-------------------------------|    |-------------------------------|
|-------------------------------|    |-------------------------------|
|-0---0---0---0---0---0---0--3--|    |-0---0---0---0---3/15\3--------|
|-0---0---0---0---0---0---0--3--|    |-0---0---0---0---3/15\3--------|
|-0---0---0---0---0---0---0--3--|    |-0---0---0---0---3/15\3--------|

|-----------------------------------|
|--15--15--15--15--15--15--15-15----|
|--17b-17b-17b-17b-17b-17b-17b17b---|
|-----------------------------------|
|-----------------------------------|
|-----------------------------------|
|                                   | x2
|-----------------------------------|
|-----------------------------------|
|-----------------------------------|
|-3-33-33-3-333333-5-55-55-5-555555-|
|-3-33-33-3-333333-5-55-55-5-555555-|
|-3-33-33-3-333333-5-55-55-5-555555-|

Outro
|------------------------------|
|-15~~~~~~~~~~~~~~~~~~~~~~15-\-|
|-17b~~~~~~~~~~~~~~~~~~~~~17b\-|
|------------------------------|
|------------------------------|
|------------------------------|
|                              |
|------------------------------|
|------------------------------|
|------------------------------|
|-0~~~~~~~~~~~~~~~~~~~~~~~12\--|
|-0~~~~~~~~~~~~~~~~~~~~~~~12\--|
|-0~~~~~~~~~~~~~~~~~~~~~~~12\--|

Oh and sorry about that part I missed in the solo :P I couldn't get it so i hope someone
out the can fix it.

Some of these parts sound off to me so if you have ANY corrections, send them to





Comments


Popular Priestess tabs & chords
Everything That You Are Bass Tabs
Lay Down 2 Bass Tabs
Living Like A Dog Bass Tabs
Performance Bass Tabs
Run Home Bass Tabs
Communicating Via Eyes Tabs
I Am The Night, Colour Me Black Tabs
Lady Killer 1 Tabs
Shakes Tabs
Talk To Her Intro 1 Tabs


Song lyrics



↑ Back to top | Tablatures and chords are parodies/interpretations of the original songs. You may use it for private study, scholarship, research or language learning purposes only
© 2014 AZChords.com Contact us | Privacy policy | DMCA | Add/correct tabs | Request tabs | Top 50 tabs