» » »

Priestess, I Am The Night, Colour Me Black Tabs (ver.1)

Artists:  A B C D E F G H I J K L M N O P Q R S T U V W X Y Z # 

I Am The Night, Colour Me Black Tabs (ver.1)

Priestess Tabs
Rating:
0/5 (0 votes)
I Am The Night, Colour Me Black lessons Tabs too difficult? Try these video lessons and learn fast
                Intro
|-----------------------|
|-----------------------|
|-----------------------| x12
|-4--4--4--4--4--4--4-7-|
|-4--4--4--4--4--4--4-7-|
|-2--2--2--2--2--2--2-5-|

|--------------------------|    |------------------|  |--------------------------|
|-----------------------7b-|    |------------------|  |-----------------------7b-|
|-7-7-10-7-7-10-7-7-10-7---| x4 |-5-55555555555555-|  |-7-7-10-7-7-10-7-7-10-7---| x4
|-7-7-10-7-7-10-7-7-10-7---|    |-5-55555555555555-|  |-7-7-10-7-7-10-7-7-10-7---|
|--------------------------|    |-3-33333333333333-|  |--------------------------|
|--------------------------|    |------------------|  |--------------------------|

Verse 1
|------------------------------|
|------------------------------|
|-7-7-10-7-7-10-7-7-10-7-10-10-| x4
|-7-7-10-7-7-10-7-7-10-7-10-10-|
|------------------------------|
|------------------------------|

|-----------------------|    
|-----------------------|    
|-----------------------|    
|-9--x7--x9--x7-------5-|    
|-9--x7--x9--x7-------5-|    
|-7--x5--x7--x5-7-5-7---|    

Bridge
|---------------------------|
|------------------------7b-|
|-7-7-10-7-7-10-7-7-10-7----| x2
|-7-7-10-7-7-10-7-7-10-7----|
|---------------------------|
|---------------------------|

Verse 2
|------------------------------|    |---------------------------|
|------------------------------|    |---------------------------|
|-7-7-10-7-7-10-7-7-10-7-10-10-| x3 |-7-7-10-7-7-10-7-7-7-7-7-7-|
|-7-7-10-7-7-10-7-7-10-7-10-10-|    |-7-7-10-7-7-10-7-7-7-7-7-7-|
|------------------------------|    |---------------------------|
|------------------------------|    |---------------------------|

|-----------------------|
|-----------------------|
|-----------------------|
|-9--x7--x9--x7-------5-|
|-9--x7--x9--x7-------5-|
|-7--x5--x7--x5-7-5-7---|

Chorus
|-----------------------|    |---------------------|
|-----------------------|    |---------------------|
|-7--x5--x7--x5-------3-| x3 |-7--x5---------------|
|-7--x5--x7--x5-------3-|    |-7--x5--x7--x7-------|
|-5--x3--x5--x3-5-3-5---|    |-5--x3--x7--x7-------|
|-----------------------|    |--------x5--x5-7-5-7-|

|-----------------------------------|
|-----------------------------------|
|-----------------------------------|
|-3-33-33-3-333333-5-55-55-5-555555-|
|-3-33-33-3-333333-5-55-55-5-555555-|
|-1-11-11-1-111111-3-33-33-3-333333-|

|---------------------------|
|------------------------7b-|
|-7-7-10-7-7-10-7-7-10-7----| x2
|-7-7-10-7-7-10-7-7-10-7----|
|---------------------------|
|---------------------------|

Verse 3
|------------------------------|    |------------------------------|
|------------------------------|    |------------------------------|
|------------------------10-10-|    |-7-7-10-7-7-10-7-7-10-7-10-10-| x3
|------------------------10-10-|    |-7-7-10-7-7-10-7-7-10-7-10-10-|
|------------------------------|    |------------------------------|
|------------------------------|    |------------------------------|

|-----------------------|
|-----------------------|
|-----------------------|
|-9--x7--x9--x7-------5-|
|-9--x7--x9--x7-------5-|
|-7--x5--x7--x5-7-5-7---|

Bridge
|---------------------------|
|------------------------7b-|
|-7-7-10-7-7-10-7-7-10-7----|
|-7-7-10-7-7-10-7-7-10-7----|
|---------------------------|
|---------------------------|

Verse 4
|----------------|    |---------------|
|----------------|    |---------------|
|----------------| x3 |---------------|
|-9------------7-|    |-9------4--5-6-|
|-9------5---5-7-|    |-9------4--5-6-|
|-7----7---7-----|    |-7------2--3-4-|

|-----------------------|
|-----------------------|
|-----------------------|
|-9--x7--x9--x7-------5-|
|-9--x7--x9--x7-------5-|
|-7--x5--x7--x5-7-5-7---|

Chorus
|-----------------------|    |---------------------|
|-----------------------|    |---------------------|
|-7--x5--x7--x5-------3-| x3 |-7--x5---------------|
|-7--x5--x7--x5-------3-|    |-7--x5--x7--x7-------|
|-5--x3--x5--x3-5-3-5---|    |-5--x3--x7--x7-------|
|-----------------------|    |--------x5--x5-7-5-7-|

|-----------------------------------|
|-----------------------------------|
|-----------------------------------|
|-3-33-33-3-333333-5-55-55-5-555555-|
|-3-33-33-3-333333-5-55-55-5-555555-|
|-1-11-11-1-111111-3-33-33-3-333333-|

|---------------------------|
|------------------------7b-|
|-7-7-10-7-7-10-7-7-10-7----|
|-7-7-10-7-7-10-7-7-10-7----|
|---------------------------|
|---------------------------|

I don't have much time to do the solo so I'm hoping some one else will finish it by the time I get back :P

If you have any improvements to my tab DON'T HESITATE TO TELL ME I'M WRONG!
            

comments powered by Disqus
↑ Back to top | Priestess Tabs for I Am The Night, Colour Me Black. Lyrics for acoustic guitar and electric guitar. Tablatures and chords are parodies/interpretations of the original songs. You may use it for private study, scholarship, research or language learning purposes only