» » »

Communicating Via Eyes Tabs (ver.1)

Artists:  A B C D E F G H I J K L M N O P Q R S T U V W X Y Z # 

Communicating Via Eyes Tabs (ver.1)

Priestess
Rating:
5/5 (1 vote)

Hard to play? Try these video lessons and learn fast.
                part 1

-------6-8------------|-------------------------------|
--6h8------6-6h8p6-6\4|-/8---8h9p8p6/4-6-------6----6-|
-----0----------------|---8--------------3-(0)-7-----7|  x2
----------------------|-------------------------------|
----------------------|-------------------------------|
----------------------|-------------------------------|


part 2
------------------------------------|------------------------------------|
-6h8p6--------------4-4h6-----4--6/8|-6h8p6--------------4-4h6-----4--4--|
----------8--5--3/5--5----3/5--5----|----------8--5--3/5--5----3/5-------|
------8/10--------------------------|------8/10--------------------------|
------------------------------------|------------------------------------|
------------------------------------|------------------------------------|

repeat part 1
repeat part 2

play the second half of part 2
The rest, I have not figured out, then:


Distorted
----------------|--------------|-------------------|
----------------|--------------|-------------------|
----------------|--------------|-------------------|
----------------|--------------|-------------------|    pm = palm mute
----------------|-5-5/8-7-5----|-------------------|
--6~-8-9-8--467-|-----------646|-x-8-9-8--642~-3-4-|
           *pm              *pm
----------------|--------------|--------------|---------------|
----------------|--------------|--------------|---------------|
----------------|--------------|--------------|---------------|
----------------|--------------|--------------|---------------|
----------------|-5-5/8-7-5----|--------------|-5-5/8-7-5-----|
---6-8-9-8--767-|-----------646|-x-8-9-8--767-|-----------646-|

----------------|--------------|--------------|---------------|
----------------|--------------|--------------|---------------|
----------------|--------------|--------------|---------------|
----------------|--------------|--------------|---------------|
----------------|-5-5/8-7-5----|--------------|-5-5/8-7-5-----|
---6-8-9-8--767-|-----------646|-x-8-9-8--767-|-----------646-|


-----------------|------------------|
-----------------|-9b-6~------------|
-----------------|-------8b-6~---8b-|
-8~-----9~-------|-------------8----|
-8~-----9~-------|------------------|
-6~-7-6-7~-8-7---|------------------|

----------------|--------------|--------------|---------------|
----------------|--------------|--------------|---------------|
----------------|--------------|--------------|---------------|
----------------|--------------|--------------|---------------|
----------------|-5-5/8-7-5----|--------------|-5-5/8-7-5-----|
--6~-8-9-8--767-|-----------646|-x-8-9-8--767-|-----------646-|


---------------|----------------------|-----------------------|
---------------|----------------------|-----------------------|
-------10---10-|--11/13\11-10-8-------|-8b-8b-----------------|
--8--8---------|------------------11--|---------11-8--6tr8----|
--x------------|----------------------|-----------------------|
--6------------|----------------------|-----------------------|


---------------|----------------------|-----------------------|
---------------|----------------------|----9------------------|
-------10---10-|--11/13\11-10-8-----8b|-8b10r8--6/8\6---------|
-/8--8---------|-----------------11---|----------------8------|
---------------|----------------------|-----------------------|
---------------|----------------------|-----------------------|


---------------|----------------------|-----------------------|
---------------|----------------------|-----------------------|
-------10---10-|--11/13\11-10-8-------|-8b-8b-----------------|
--8--8---------|------------------11--|---------11-8--6/8-----|
--x------------|----------------------|-----------------------|
--6------------|----------------------|-----------------------|

The rest will be up soon
            
Hard to play? Try these video lessons and learn fast. | Correct




comments powered by Disqus
↑ Back to top | Tablatures and chords are parodies/interpretations of the original songs. You may use it for private study, scholarship, research or language learning purposes only