>
 >
Blood

Blood Guitar Tabs

Priestess - Blood chords, tabs, tablatures, lyrics

Guitar lessons | Add/correct | Request | Top 50 tabs Artists:  A B C D E F G H I J K L M N O P Q R S T U V W X Y Z 0-9

Blood Guitar Tabs – Priestess

CD, Sheet music, Poster

Do you like Blood? Share with your friends now
Tabs
By Priestess

Verse
E|---------------------------------------------------------------------|
B|---------------------------------------------------------------------|
G|---------------------------------------------------------------------|
D|---------------------------------------------------------------------|
A|-4-4-4-4-4-4-4-4--2-2-2-2--7-7-7-7--6-6-6-6-6-6-6-6-6-6-6-6-6-6-6-6--|
E|---------------------------------------------------------------------|


E|---------------------------------------------------------------------|
B|---------------------------------------------------------------------|
G|---------------------------------------------------------------------|
D|---------------------------------------------------------------------|
A|-4-4-4-4-4-4-4-4--7-7-7-7-7-7-7-7--4-4-4-4-4-4-4-4--3-3-3-3-3-3-3-3--|
E|---------------------------------------------------------------------|


E|---------------------------------------------------------------------|
B|---------------------------------------------------------------------|
G|---------------------------------------------------------------------|
D|---------------------------------------------------------------------|
A|-4-4-4-4-4-4-4-4--2-2-2-2--7-7-7-7--6-6-6-6-6-6-6-6-6-6-6-6-6-6-6-6--|
E|---------------------------------------------------------------------|


E|--------------------------------------------------------------------|
B|--------------------------------------------------------------------|
G|--------------------------------------------------------------------|
D|--------------------------------------------------------------------|
A|-4-4-4-4-4-4-4-4--7-7-7-7-7-7-7-7--6-6-6-6-6-6-6-6-6-6-6-6-6-6-6-6--|
E|--------------------------------------------------------------------|


Chorus

  Guitar 1
E|-------------------------------------|
B|-------------------------------------|
G|-2222--------4444--6666666666666666--|
D|-2222--4444--4444--6666666666666666--|
A|-0000--4444--2222--4444444444444444--|
E|-------2222--------------------------|
 |
 |Guitar 2
E|---------------------------------------------------------|
B|---------------------------------------------------------|
G|-2222--------4444--6---6-9-8-8h9p8-6--6---6-9-8-8h9p8-6--|
D|-2222--4444--4444----6------------------6----------------|
A|-0000--4444--2222----------------------------------------|
E|-------2222----------------------------------------------|


  Guitar 1
E|-------------------------------------|
B|-------------------------------------|
G|-2222--------4444--6666666666666666--|
D|-2222--4444--4444--6666666666666666--|
A|-0000--4444--2222--4444444444444444--|
E|-------2222--------------------------|
 |
 |Guitar 2
E|--------------------------------------------------------|
B|--------------------------------------------------------|
G|-2222--------4444--6---6-9-8-8h9p8-6--6---6-9-8-8h9p8-6-|
D|-2222--4444--4444----6------------------6---------------|
A|-0000--4444--2222---------------------------------------|
E|-------2222---------------------------------------------|


E|-------------------------|
B|-------------------------|
G|-2222--------------------|
D|-2222--4444--2222--6666--|
A|-0000--4444--2222--6666--|
E|-------2222--0000--4444--|


  Verse
E|---------------------------------------------------------------------|
B|---------------------------------------------------------------------|
G|---------------------------------------------------------------------|
D|---------------------------------------------------------------------|
A|-4-4-4-4-4-4-4-4--7-7-7-7-7-7-7-7--4-4-4-4-4-4-4-4--3-3-3-3-3-3-3-3--|
E|---------------------------------------------------------------------|


E|--------------------------------------------------------------------|
B|--------------------------------------------------------------------|
G|--------------------------------------------------------------------|
D|--------------------------------------------------------------------|
A|-4-4-4-4-4-4-4-4--7-7-7-7-7-7-7-7--6-6-6-6-6-6-6-6-6-6-6-6-6-6-6-6--|
E|--------------------------------------------------------------------|


E|--------------------------------------------------------------------|
B|--------------------------------------------------------------------|
G|--------------------------------------------------------------------|
D|--------------------------------------------------------------------|
A|-4-4-4-4-4-4-4-4--7-7-7-7-7-7-7-7--6-6-6-6-6-6-6-6-6-6-6-6-6-6-6-6--|
E|--------------------------------------------------------------------|


Chorus

  Guitar 1
E|-------------------------------------|
B|-------------------------------------|
G|-2222--------4444--6666666666666666--|
D|-2222--4444--4444--6666666666666666--|
A|-0000--4444--2222--4444444444444444--|
E|-------2222--------------------------|
 |
 |Guitar 2
E|---------------------------------------------------------|
B|---------------------------------------------------------|
G|-2222--------4444--6---6-9-8-8h9p8-6--6---6-9-8-8h9p8-6--|
D|-2222--4444--4444----6------------------6----------------|
A|-0000--4444--2222----------------------------------------|
E|-------2222----------------------------------------------|


  Guitar 1
E|-------------------------------------|
B|-------------------------------------|
G|-2222--------4444--6666666666666666--|
D|-2222--4444--4444--6666666666666666--|
A|-0000--4444--2222--4444444444444444--|
E|-------2222--------------------------|
 |
 |Guitar 2
E|--------------------------------------------------------|
B|--------------------------------------------------------|
G|-2222--------4444--6---6-9-8-8h9p8-6--6---6-9-8-8h9p8-6-|
D|-2222--4444--4444----6------------------6---------------|
A|-0000--4444--2222---------------------------------------|
E|-------2222---------------------------------------------|


E|------------------------------------------------------------|
B|------------------------------------------------------------|
G|-2222--------------------666666666666666666666666--6--6--6--|
D|-2222--4444--2222--6666--666666666666666666666666--6--6--6--|
A|-0000--4444--2222--6666--444444444444444444444444--4--4--4--|
E|-------2222--0000--4444-------------------------------------|


  Solo
E|-----------------------------------------------------------------|
B|-----------------------------------------------------------------|
G|-11b13--11b13r11-9--------9-------------------------------9-11b--|
D|---------------------9-11---11-----------------------9h11--------|
A|-------------------------------11-----------11--9-11-------------|
E|----------------------------------9--9-9h11----------------------|


E|----------------------------------------------------------------/16-14b-|
B|------------------------------------------------------/14-12~-----------|
G|-----------9-11b13-11b13r11-------------------/13-11~--------13---------|
D|------9-11----------------------9-8-------------------------------------|
A|-9/11-----------------------9/11----10b11-9-8---------------------------|
E|------------------------------------------------------------------------|


Chorus

  Guitar 1
E|-------------------------------------|
B|-------------------------------------|
G|-2222--------4444--6666666666666666--|
D|-2222--4444--4444--6666666666666666--|
A|-0000--4444--2222--4444444444444444--|
E|-------2222--------------------------|
 |
 |Guitar 2
E|---------------------------------------------------------|
B|---------------------------------------------------------|
G|-2222--------4444--6---6-9-8-8h9p8-6--6---6-9-8-8h9p8-6--|
D|-2222--4444--4444----6------------------6----------------|
A|-0000--4444--2222----------------------------------------|
E|-------2222----------------------------------------------|


  Guitar 1
E|-------------------------------------|
B|-------------------------------------|
G|-2222--------4444--6666666666666666--|
D|-2222--4444--4444--6666666666666666--|
A|-0000--4444--2222--4444444444444444--|
E|-------2222--------------------------|
 |
 |Guitar 2
E|--------------------------------------------------------|
B|--------------------------------------------------------|
G|-2222--------4444--6---6-9-8-8h9p8-6--6---6-9-8-8h9p8-6-|
D|-2222--4444--4444----6------------------6---------------|
A|-0000--4444--2222---------------------------------------|
E|-------2222---------------------------------------------|


E|-------------------------------------------|
B|-------------------------------------------|
G|-2222--------------------6666666666666666--|
D|-2222--4444--2222--6666--6666666666666666--|
A|-0000--4444--2222--6666--4444444444444444--|
E|-------2222--0000--4444--------------------|


Guitar 1
E|-------------------------------------|
B|-------------------------------------|
G|-2222--------4444--6666666666666666--|
D|-2222--4444--4444--6666666666666666--|
A|-0000--4444--2222--4444444444444444--|
E|-------2222--------------------------|
 |
 |Guitar 2
E|--------------------------------------------------------|
B|--------------------------------------------------------|
G|-2222--------4444--6---6-9-8-8h9p8-6--6---6-9-8-8h9p8-6-|
D|-2222--4444--4444----6------------------6---------------|
A|-0000--4444--2222---------------------------------------|
E|-------2222---------------------------------------------|

E|--------------------------------------------------------------------|
B|--------------------------------------------------------------------|
G|-2222------------------------------------------------------------6--|
D|-2222--4444--2222--6666666666666666666666666666-6-6-6-6-6-6-6-6--6--|
A|-0000--4444--2222--6666666666666666666666666666-6-6-6-6-6-6-6-6--4--|
E|-------2222--0000--4444444444444444444444444444-4-4-4-4-4-4-4-4-----|


Key:
h = hammer on
p = pull off
b = bend
~ = vibrato
/ = slide up
\ = slide down





Comments


Popular Priestess tabs & chords
Performance Bass Tabs
Run Home 1 Bass Tabs
Lay Down Chords
Everything That You Are 1 Tabs
I Am The Night, Colour Me Black Tabs
I Am The Night, Colour Me Black 1 Tabs
Lay Down Tabs
Talk To Her Intro Tabs
Time Will Cut You Down Tabs
Lay Down Ukulele


Song lyrics



↑ Back to top | Tablatures and chords are parodies/interpretations of the original songs. You may use it for private study, scholarship, research or language learning purposes only
© 2014 AZChords.com Contact us | Privacy policy | DMCA | Add/correct tabs | Request tabs | Top 50 tabs