» » »

Mystery Trian Tabs (ver.1)

Artists:  A B C D E F G H I J K L M N O P Q R S T U V W X Y Z # 

Mystery Trian Tabs (ver.1)

Presley Elvis
Rating:
0/5 (0 votes)

Hard to play? Try these video lessons and learn fast.
                (Intro)
MYSTERY TRAIN INTRO

                     E/B           E            E/A
|--------------------(0)------||-----------0--------------------||
|---------------------0-------||-----------0------------2-------||
|---------------------1-------||-----------1------------2-------||
|-----------------------------||-----------2--------------------||
|-----------0--^--2-----------||----------------------------2---||
|-----------------------------||---0-------------0--------------||
          Hammer on                                   (6 TIMES)


         E     E/A      
|--------0----------------------|
|--------0------------2---------|
|--------1------------2---------|
|--------2----------------------|
|--------------------------2----|
|---0-----------0---------------|
            
Hard to play? Try these video lessons and learn fast. | Correct




comments powered by Disqus
↑ Back to top | Tablatures and chords are parodies/interpretations of the original songs. You may use it for private study, scholarship, research or language learning purposes only