» » »

Presley Elvis, Lovin Arms Bass tabs (ver.1)

Artists:  A B C D E F G H I J K L M N O P Q R S T U V W X Y Z # 

Lovin Arms Bass tabs (ver.1)

Presley Elvis Tabs
Rating:
0/5 (0 votes)
Lovin Arms lessons Tabs too difficult? Try these video lessons and learn fast
                "(1)
ELVIS PRESLEY - LOVIN' ARMS

INTRO:

G:|-----------------|-----------------|-----------------|-----------------|
D:|-----------------|-----------------|-----------------|-----------------|
A:|-----------------|-----------------|-----------------|-----------------|
E:|-3-----3--3--3---|-3-----3--3--3---|-3-----3--3--3---|-3---------------|
 
VERS 1:

G:|-----------------|-----------------|-----------------|-----------------|
D:|-----------------|-----------------|-----------------|-----------------|
A:|--------------2--|-3-----3-5-----5-|---------------2-|-3-----3-5-----5-|
E:|-3-----3-3-------|-----------------|-3-----3-3-------|-----------------|
 
G:|-----------------|-----------------|-----------------|-----------------|
D:|-----------------|-----------------|-----------------|-----------------|
A:|--------------2--|-3-----3-5-----5-|---------------2-|-3-----3-5-----5-|
E:|-3-----3-3-------|-----------------|-3-----3-3-------|-----------------|
 
VERS 2:

G:|-----------------|-----------------|-----------------|-----------------|
D:|-----------------|-----------------|-----------------|-----------------|
A:|--------------2--|-3-----3-5-----5-|---------------2-|-3-----3-5-----5-|
E:|-3-----3-3-------|-----------------|-3-----3-3-------|-----------------|
 
G:|-----------------|-----------------|-----------------|-----------------|
D:|-----------------|-----------------|-----------------|-----------------|
A:|--------------2--|-3-----3-5-----5-|---------------2-|-3-----3-5-----5-|
E:|-3-----3-3-------|-----------------|-3-----3-3-------|-----------------|
 
REFR:

G:|-----------------|-----------------|-----------------|-----------------|
D:|-----------------|-----------------|-----------------|-----------------|
A:|-3-----3-5-----5-|---2-3--2--------|-0-----0-5-----5-|-----------------|
E:|-----------------|-3---------------|-----------------|-3-----3-3-------|

G:|-----------------|-----------------|-----------------|-----------------|
D:|-----------------|-----------------|-----------------|-----------------|
A:|-3-----3-5-----5-|---2-3--2--------|-0-----0-5-----5-|-----------------|
E:|-----------------|-3---------------|-----------------|-3-----3-3-------|

MIDDLEPLAY:

G:|-----------------|-----------------|-----------------|-----------------|
D:|-----------------|-----------------|-----------------|-----------------|
A:|-----------------|-----------------|-----------------|-----------------|
E:|-3-----3--3--3---|-3-----3--3--3---|-3-----3--3--3---|-3-----3--3--3---|
 
VERS 3:

G:|-----------------|-----------------|-----------------|-----------------|
D:|-----------------|-----------------|-----------------|-----------------|
A:|--------------2--|-3-----3-5-----5-|---------------2-|-3-----3-5-----5-|
E:|-3-----3-3-------|-----------------|-3-----3-3-------|-----------------|
 
REFR:

G:|-----------------|-----------------|-----------------|-----------------|
D:|-----------------|-----------------|-----------------|-----------------|
A:|-3-----3-5-----5-|---2-3--2--------|-0-----0-5-----5-|-----------------|
E:|-----------------|-3---------------|-----------------|-3-----3-3-------|

G:|-----------------|-----------------|-----------------|-----------------|
D:|-----------------|-----------------|-----------------|-----------------|
A:|-3-----3-5-----5-|---2-3--2--------|-0-----0-5-----5-|-----------------|
E:|-----------------|-3---------------|-----------------|-3-----3-3-------|

G:|-----------------|
D:|-----------------|
A:|-3-----3-5-----5-|
E:|-----------------|

OUTRO:

G:|-----------------|-----------------|-----------------|-----------------|
D:|-----------------|-----------------|-----------------|-----------------|
A:|-----------------|-----------------|-----------------|-----------------|
E:|-3-----3--3--3---|-3-----3--3--3---|-3-----3--3--3---|-3---------------|
"            

comments powered by Disqus
↑ Back to top | Presley Elvis Bass for Lovin Arms. Lyrics for acoustic guitar and electric guitar. Tablatures and chords are parodies/interpretations of the original songs. You may use it for private study, scholarship, research or language learning purposes only