>
 >
Devil In Disguise

Devil In Disguise Bass Tabs

Presley Elvis - Devil In Disguise chords, tabs, tablatures, lyrics

Guitar lessons | Add/correct | Request | Top 50 tabs Artists:  A B C D E F G H I J K L M N O P Q R S T U V W X Y Z 0-9

Devil In Disguise Bass Tabs – Presley Elvis

CD, Sheet music, Poster

Do you like Devil In Disguise? Share with your friends now
Bass TabsChords
elvis presley_devil in disguise (you're the devil in disguise)

TablEdited by Jan Bjorklund   
You are welcome to request for tabs!
Fingering and positions as suggested by TablEdit, please use common sense.


TablEdited by Jan Bjorklund
Tuning : E A D G 	Time Signature: 4/4



 |               |               |               |                
|----------------------------------------------------------------|
|----------------------------------------------------------------|
|------------1-------1---1---------1---1-------3---------3---3---|
|----------------------------------------------------------------|

 |               |               |               |                
|----------------------------------------------------------------|
|------------------3---------------------------------------------|
|----3---3-----------------3---------3-------3-------3---------3-|
|----------------------------------------------------------------|

 |               |               |               |                
|----------------------------------------------------------------|
|------------------------3---------------------------------------|
|------3---------3-----------------------------------------------|
|----------------------------------------------------------------|

 |               |               |               |                
|----------------------------------------------------------------|
|------------------------------3---------------------------------|
|----------------------3-----------------------------------------|
|----------------------------------------------------------------|

 |               |               |               |                
|----------------------------------------------------------------|
|------------------------------------3---------------------------|
|----------------------------3-----------------------------------|
|----------------------------------------------------------------|

 |               |               |               |                
|----------------------------------------------------------------|
|------------------------------------------3---------------------|
|----------------------------------3-----------------------------|
|----------------------------------------------------------------|

 |               |               |               |                
|------------------------------------------------3---------------|
|----------------------------------------3-----------------------|
|----------------------------------------------------------------|
|----------------------------------------------------------------|

 |               |               |               |                
|------------------------------------------------------3---------|
|----------------------------------------------3-----------------|
|----------------------------------------------------------------|
|----------------------------------------------------------------|

 |               |               |               |                
|----------------------------------------------------0-------5---|
|----------------------------------------------------------------|
|----------------------------------------------------------------|
|----------------------------------------------------------------|

 |               |               |               |                
|----------------------0---------2-------0-----------------------|
|--------------------------------------------------2-------0-----|
|----------------------------------------------------------------|
|----------------------------------------------------------------|

 |               |               |               |                
|----------------------------------------------------------------|
|----------------------------------------------------------------|
|--3-------------------------------------------------------------|
|----------------------------------------------------------------|

 |               |               |               |                
|----------------------------------------------------------------|
|--------3-----------------------------------3-------------------|
|--------------------------3-----------------------------3-------|
|----------------------------------------------------------------|

 |               |               |               |                
|----------------------------------------------------------------|
|------3-------0-----------------------------------0-----------0-|
|--------------------------------0-------------------------------|
|----------------------------------------------------------------|

 |               |               |               |                
|----------------------------------------------------------------|
|------------2-------3-----------------------------------3-------|
|--------------------------------------3-------------------------|
|----------------------------------------------------------------|

 |               |               |               |                
|----------------------------------------------------------------|
|----------------3---------0-----------------------------------0-|
|------3-------------------------------------0-------------------|
|----------------------------------------------------------------|

 |               |               |               |                
|----------------------------------------------------------------|
|------------0-----------2---------3-----------------------------|
|--------------------------------------------------3-------------|
|----------------------------------------------------------------|

 |               |               |               |                
|----------------------------------------------------------------|
|----3-----------------------------------3-----------------------|
|------------------3-------------------------------------3-------|
|----------------------------------------------------------------|

 |               |               |               |                
|----------------------------------------------------------------|
|----------3-------------------------3---------0-----------------|
|------------------------3-------------------------------------0-|
|----------------------------------------------------------------|

 |               |               |               |                
|----------------------------------------------------------------|
|----------------0-----------------------------------0-----------|
|------------------------------0---------------------------------|
|----------------------------------------------------------------|

 |               |               |               |                
|----------------------------------------------------------------|
|----------------------0-------------------------2---------3-----|
|----0-------------------------------0---------------------------|
|----------------------------------------------------------------|

 |               |               |               |                
|----------------------------------------------------------------|
|----------------------------3-------------------------3---------|
|------------3-----------------------------3---------------------|
|----------------------------------------------------------------|

 |               |               |               |                
|----------------------------------------------------------------|
|0---------------------------------0-----------------------------|
|------------------0-----------------------------------------0---|
|------------------------------------------------1---------------|

 |               |               |               |                
|----------------------------------------------------------------|
|----------------------------------------------------------------|
|------1-------1---1---------1---1-------3---------3---3-------3-|
|----------------------------------------------------------------|

 |               |               |               |                
|----------------------------------------------------------------|
|------------3---------------------------------------------------|
|----3---------------3---------3-------3-------3---------3-------|
|----------------------------------------------------------------|

 |               |               |               |                
|----------------------------------------------------------------|
|------------------3---------------------------------------------|
|3---------3-----------------------------------------------------|
|----------------------------------------------------------------|

 |               |               |               |                
|----------------------------------------------------------------|
|------------------------3---------------------------------------|
|----------------3-----------------------------------------------|
|----------------------------------------------------------------|

 |               |               |               |                
|----------------------------------------------------------------|
|------------------------------3---------------------------------|
|----------------------3-----------------------------------------|
|----------------------------------------------------------------|

 |               |               |               |                
|----------------------------------------------------------------|
|------------------------------------3---------------------------|
|----------------------------3-----------------------------------|
|----------------------------------------------------------------|

 |               |               |               |                
|------------------------------------------3---------------------|
|----------------------------------3-----------------------------|
|----------------------------------------------------------------|
|----------------------------------------------------------------|

 |               |               |               |                
|------------------------------------------------3---------------|
|----------------------------------------3-----------------------|
|----------------------------------------------------------------|
|----------------------------------------------------------------|

 |               |               |               |                
|--------------------------------------------0---------5---------|
|----------------------------------------------------------------|
|----------------------------------------------------------------|
|----------------------------------------------------------------|

 |               |               |               |                
|----------------0---------2-------0-----------------------------|
|--------------------------------------------2-------0-----------|
|------------------------------------------------------------3---|
|----------------------------------------------------------------|

 |               |               |               |                
|----------------------------------------------------------------|
|----------------------------------------------------------------|
|----------------------------------------------------------------|
|----------------------------------------------------------------|

 |               |               |               |                
|----------------------------------------------------------------|
|--3-----------------------------------3-------------------------|
|--------------------3-------------------------------3-----------|
|----------------------------------------------------------------|

 |               |               |               |                
|----------------------------------------------------------------|
|3-------0-----------------------------------0-------------0-----|
|--------------------------0-------------------------------------|
|----------------------------------------------------------------|

 |               |               |               |                
|----------------------------------------------------------------|
|----2-----------3---------------------------------3-------------|
|--------------------------------3-------------------------------|
|----------------------------------------------------------------|

 |               |               |               |                
|----------------------------------------------------------------|
|------------3---------0---------------------------------0-------|
|3-------------------------------------0-------------------------|
|----------------------------------------------------------------|

 |               |               |               |                
|----------------------------------------------------------------|
|------0-----------2---------3---------------------------------3-|
|--------------------------------------------3-------------------|
|----------------------------------------------------------------|

 |               |               |               |                
|----------------------------------------------------------------|
|----------------------------------3-----------------------------|
|------------3-------------------------------------3-------------|
|----------------------------------------------------------------|

 |               |               |               |                
|----------------------------------------------------------------|
|----3-------------------------3---------0-----------------------|
|------------------3---------------------------------------0-----|
|----------------------------------------------------------------|

 |               |               |               |                
|----------------------------------------------------------------|
|----------0-----------------------------------0-----------------|
|------------------------0---------------------------------------|
|----------------------------------------------------------------|

 |               |               |               |                
|----------------------------------------------------------------|
|----------------0-------------------------2---------3-----------|
|0-----------------------------0---------------------------------|
|----------------------------------------------------------------|

 |               |               |               |                
|----------------------------------------------------------------|
|----------------------3---------------------------3-------0-----|
|------3-----------------------------3---------------------------|
|----------------------------------------------------------------|

 |               |               |               |                
|----------------------------------------------------------------|
|----------------------------0-----------------------------------|
|------------0-------------------------------------------0-------|
|------------------------------------------1---------------------|

 |               |               |               |                
|----------------------------------------------------------------|
|----------------------------------------------------------------|
|1-------1-----1-------1---1-------3---------3---3-------3-----3-|
|----------------------------------------------------------------|

 |               |               |               |                
|----------------------------------------------------------------|
|------3---------------------------------------------------------|
|--------------3---------3-------3---------3-------3-------3-----|
|----------------------------------------------------------------|

 |               |               |               |                
|----------------------------------------------------------------|
|------------3---------------------------------------------------|
|----3-----------------------------------------------------------|
|----------------------------------------------------------------|

 |               |               |               |                
|----------------------------------------------------------------|
|------------------3---------------------------------------------|
|----------3-----------------------------------------------------|
|----------------------------------------------------------------|

 |               |               |               |                
|----------------------------------------------------------------|
|----------------------------------------------------------------|
|----------------3-----------------------------------------------|
|----------------------------------------------------------------|





Comments


Popular Presley Elvis tabs & chords
Blue Moon 1 Bass Tabs
Burning Love 1 Bass Tabs
Fever 1 Bass Tabs
In The Ghetto Chords
Love Me Tender Chords
Surrender Chords
Heartbreak Hotel Tabs
Loving You Tabs
Mystery Trian Intro Tabs
Thats Alright Tabs


Song lyrics



↑ Back to top | Tablatures and chords are parodies/interpretations of the original songs. You may use it for private study, scholarship, research or language learning purposes only
© 2014 AZChords.com Contact us | Privacy policy | DMCA | Add/correct tabs | Request tabs | Top 50 tabs