» » »

Presley Elvis, Blue Suede Shoes Bass tabs (ver.1)

Artists:  A B C D E F G H I J K L M N O P Q R S T U V W X Y Z # 

Blue Suede Shoes Bass tabs (ver.1)

Presley Elvis Tabs
 Rating:
4/5 (4 votes)
Blue Suede Shoes lessons Tabs too difficult? Try these video lessons and learn fast
1
                The King is dead but not his music!
Every bass player should have played at least one time 
in his life such a song based on a very common blues riff.

I found no instance of a bass tab for this song on the Web.
The timing is correctly tabbed.

Thanks to email any corrections, improvements or comments
Also, feel free to tell me if you like this tab.

VERSE 1
  1 & 2 & 3 & 4 &  1 & 2 & 3 & 4 &
G|----------------|----------------|
D|----------------|----------------|
A|----------------|----------------|
E|------3-5-----3-|5-------5-3-5-3-|

CHORUS
  1 & 2 & 3 & 4 &  1 & 2 & 3 & 4 &  1 & 2 & 3 & 4 &  1 & 2 & 3 & 4 &
G|------4-7-4-----|----------------|------6-------4-|----------------|
D|--4-7-------7-4-|------4-7-4-----|--6-9-----4-7---|7-4-----7-4-----|
A|5---------------|--4-7-------7-4-|7-------5-------|----7-4-----7-4-|
E|----------------|5---------------|----------------|----------------|

VERSE 2
  1 & 2 & 3 & 4 &
G|----------------|
D|----------------|  3 times, then 
A|----------------|
E|5-----3-5-----3-|

  1 & 2 & 3 & 4 &
G|----------------|
D|----------------|
A|----------------|
E|5-------5-3-5-3-|

CHORUS

SOLO 1
  1 & 2 & 3 & 4 &  1 & 2 & 3 & 4 &
G|----------------|----------------|
D|7-4-----7-4-----|7-4-----7-5-4---|
A|----7-4-----7-4-|----7-4-------7-|
E|----------------|----------------|

then play the chorus riff once

VERSE 3: Same as VERSE 2

CHORUS

SOLO 2
I didn't try to figure out the bass riff during the second guitar solo.
You can simply play the one below which is very similar to the one played
during the first guitar solo.

  1 & 2 & 3 & 4 &
G|----------------|
D|------4-7-4-----|   twice
A|--4-7-------7-4-|
E|5---------------!

then play the chorus riff once

VERSE 4
  1 & 2 & 3 & 4 &  1 & 2 & 3 & 4 &
G|----------------|----------------|
D|----------------|----------------|
A|----------------|----------------|
E|------3-5-----3-|5-------5.5.5.5.|

CHORUS

OUTRO:  Same as SOLO 2 except for the last bar on which you may improvise.
            
Submit corrections

comments powered by Disqus
↑ Back to top | Presley Elvis Bass for Blue Suede Shoes. Lyrics for acoustic guitar and electric guitar. 1 Tablatures and chords are parodies/interpretations of the original songs. You may use it for private study, scholarship, research or language learning purposes only