>
 >
Blue Hawaii

Blue Hawaii Bass Tabs

Presley Elvis - Blue Hawaii chords, tabs, tablatures, lyrics

Guitar lessons | Add/correct | Request | Top 50 tabs Artists:  A B C D E F G H I J K L M N O P Q R S T U V W X Y Z 0-9

Blue Hawaii Bass Tabs – Presley Elvis

CD, Sheet music, Poster

Do you like Blue Hawaii? Share with your friends now
Bass Tabs
elvis presley_blue hawaii

TablEdited by Jan Bjorklund   
You are welcome to request for tabs!
Fingering and positions as suggested by TablEdit, please use common sense.


TablEdited by Jan Bjorklund
Tuning : E A D G 	Time Signature: 4/4

 |               |               |               |                
|----------------------------------------------------------------|
|------------------------------------------------0---------------|
|1---------------------1---------3-------------------------------|
|----------------------------------------------------------------|

 |               |               |               |                
|----------------------------------------------------------------|
|1-------------------------1-----1-------------------------1-----|
|----------------------------------------------------------------|
|----------------------------------------------------------------|

 |               |               |               |                
|----------------------------------------------------------------|
|--------------------------------3-------------------------3-----|
|1-------------------------1-------------------------------------|
|----------------------------------------------------------------|

 |               |               |               |                
|----------------------------------------------------------------|
|----------------------------------------------------------------|
|1-------------------------1-----0-------------------------0-----|
|----------------------------------------------------------------|

 |               |               |               |                
|----------------------------------------------------------------|
|----------------------------------------------------------------|
|----------------------------------------------------------------|
|3-------------------------------3-------------------------3-----|

 |               |               |               |                
|----------------------------------------------------------------|
|----------------------------------------------------------------|
|3-------------------------------3-------------------------3-----|
|----------------------------------------------------------------|

 |               |               |               |                
|----------------------------------------------------------------|
|----------------------------------------------------------------|
|------------------------------------------------0---------------|
|1-------------------------1-----3-------------------------------|

 |               |               |               |                
|----------------------------------------------------------------|
|----------------------------------------------------------------|
|1-------------------------1-------------------------------------|
|--------------------------------3-------------------------3-----|

 |               |               |               |                
|----------------------------------------------------------------|
|----------------------------------------------------------------|
|3-------------------------------3-------------------------3-----|
|----------------------------------------------------------------|

 |               |               |               |                
|----------------------------------------------------------------|
|----------------------------------------------------------------|
|----------------------------------------------------------------|
|1-------------------------1-----1-------------------------1-----|

 |               |               |               |                
|----------------------------------------------------------------|
|----------------------------------------------------------------|
|1---------------------------------------------------------------|
|--------------------------------1-------------------------1-----|

 |               |               |               |                
|----------------------------------------------------------------|
|----------------------------------------------------------------|
|1---------------------------------------------------------------|
|--------------------------------1-------------------------------|

 |               |               |               |                
|----------------------------------------------------------------|
|----------------------------------------------------------------|
|3---------------------------------------------------------------|
|--------------------------------3-------------------------------|

 |               |               |               |                
|----------------------------------------------------------------|
|----------------------------------------------------------------|
|--------------------------------3-------------------------------|
|1---------------------------------------------------------------|

 |               |               |               |                
|----------------------------------------------------------------|
|----------------------------------------------------------------|
|1---------------------------------------------------------0-----|
|--------------------------------1---------------1-----3---------|

 |               |               |               |                
|----------------------------------------------------------------|
|----------------------------------------------------------------|
|1---------------------------------------------------------------|
|--------------------------------3-------------------------3-----|

 |               |               |               |                
|--------------------------5-----5-------------------------------|
|----------------------------------------------------------------|
|3---------------------------------------------------------3-----|
|----------------------------------------------------------------|

 |               |               |               |                
|----------------------------------------------------------------|
|----------------------------------------------------------------|
|--------------------------------3-------------------------------|
|1-------------------------1-------------------------------1-----|

 |               |               |               |                
|----------------------------------------------------------------|
|----------------------------------------------------------------|
|1---------------------------------------------------------------|
|--------------------------------1-------------------------------|

 |               |               |               |                
|----------------------------------------------------------------|
|----------------------------------------------------------------|
|1---------------------------------------------------------------|
|--------------------------------1-------------------------------|

 |               |               |               |                
|----------------------------------------------------------------|
|----------------------------------------------------------------|
|3---------------------------------------------------------------|
|--------------------------------3-------------------------------|

 |               |               |               |                
|----------------------------------------------------------------|
|----------------------------------------------------------------|
|--------------------------------3-------------------------------|
|1---------------------------------------------------------------|

 |               |               |               |                
|----------------------------------------------------------------|
|----------------------------------------------------------------|
|1---------------------------------------------------------0-----|
|--------------------------------1---------------1-----3---------|

 |               |               |               |                
|----------------------------------------------------------------|
|------------------------------------------------0---------------|
|1-------------------------------1-------------------------------|
|----------------------------------------------------------------|

 |               |               |               |                
|----------------------------------------------------------------|
|1-------------------------------1---------------0---------------|
|----------------------------------------------------------------|
|----------------------------------------------------------------|

 |               |               |               |                
|----------------------------------------------------------------|
|----------------------------------------------------------------|
|3-----------------------3-----------------------3---------------|
|--------------------------------3-------------------------------|

 |               |               |               |                
|----------------------------------------------------------------|
|----------------------------------------------------------------|
|------------------------------------------------0---------------|
|1---------------1---------------3-------------------------------|

 |               |               |               |                
|----------------------------------------------------------------|
|----------------------------------------------------------------|
|1-----------------------1---------------------------------------|
|--------------------------------3-----------------------3-------|

 |               |               |               |                
|----------------------------------------------------------------|
|----------------------------------------------------------------|
|3-----------------------------------------------3---------------|
|--------------------------------3-------------------------------|

 |               |               |               |                
|----------------------------------------------------------------|
|----------------------------------------------------------------|
|------------------------------------------------0---------------|
|1-----------------------1-------3-------------------------------|

 |               |               |               |                
|----------------------------------------------------------------|
|----------------------------------------------------------------|
|1-----------------------1-------------------------------0-------|
|--------------------------------1---------------1---3-----------|

 |               |               |               |                
|----------------------------------------------------------------|
|----------------------------------------------------------------|
|1-----------------------1-----------------------1---------------|
|--------------------------------1-------------------------------|

 |               |               |               |                
|----------------------------------------------------------------|
|--------------------------------0-------------------------------|
|----------------------------------------------------------------|
|3-----------------------3-----------------------3---------------|

 |               |               |               |                
|----------------------------------------------------------------|
|----------------------------------------------------------------|
|----------------------------------------------------------------|
|----------------------------------------------------------------|

 |               |               |               |                
|----------------------------------------------------------------|
|3---------------------------------------------------------------|
|----------------------------------------------------------------|
|----------------------------------------------------------------|

 |               |               |               |                
|3---------------------------------------------------------------|
|----------------------------------------------------------------|
|----------------------------------------------------------------|
|----------------------------------------------------------------|





Comments


Popular Presley Elvis tabs & chords
Cant Help Falling In Love Bass Tabs
A Little Less Conversation Chords
Gi Blues Chords
See See Rider Chords
Suspicious Minds Chords
The Ghetto Chords
Little Sister Tabs
Mystery Train Tabs
Silent Night Tabs
Stuck On You Tabs


Song lyrics



↑ Back to top | Tablatures and chords are parodies/interpretations of the original songs. You may use it for private study, scholarship, research or language learning purposes only
© 2014 AZChords.com Contact us | Privacy policy | DMCA | Add/correct tabs | Request tabs | Top 50 tabs