» » »

Presley Elvis, Are You Lonesome Tonight Bass tabs (ver.1)

Artists:  A B C D E F G H I J K L M N O P Q R S T U V W X Y Z # 

Are You Lonesome Tonight Bass tabs (ver.1)

Presley Elvis Tabs
Rating:
0/5 (0 votes)
Are You Lonesome Tonight lessons Tabs too difficult? Try these video lessons and learn fast
                elvis presley_are you lonesome tonight

TablEdited by Jan Bjorklund   
You are welcome to request for tabs!
Fingering and positions as suggested by TablEdit, please use common sense.


TablEdited by Jan Bjorklund
Tuning : E A D G 	Time Signature: 3/4

 |               |               |                
|------------------------------------------------|
|------------------------------------------------|
|------------3-----------------------------------|
|------------------------------------------------|

 |               |               |                
|------------------------------------------------|
|------------------------------------------------|
|--------------3---------------------------------|
|------------------------------------------------|

 |               |               |                
|------------------------------------------------|
|------------------------------------------------|
|------------3-----------------------------------|
|------------------------------------------------|

 |               |               |                
|------------------------------------------------|
|------------------------------------------------|
|------3-----3-----------------------------------|
|--------------------------------------------3---|

 |               |               |                
|------------------------------------------------|
|------------------------------------------------|
|------------3-----------------------------------|
|------------------------------------------------|

 |               |               |                
|------------------------------------------------|
|------------------------------------------------|
|------3-----3-----------------------------------|
|------------------------------------------------|

 |               |               |                
|------------------------------------------------|
|------------------------------------------------|
|------------3-----------------------------------|
|------------------------------------------------|

 |               |               |                
|------------------------------------------------|
|------------------------------------------------|
|------3-----3-----------------------------------|
|--------------------------------------------4---|

 |               |               |                
|------------------------------------------------|
|------------------------------------------------|
|------------3-----------------------------------|
|------------1-----------------------------------|

 |               |               |                
|------------------------------------------------|
|------------------------------------------------|
|------------------------------------------------|
|------------1-----------------------------------|

 |               |               |                
|------------------------------------------------|
|------------------------------------------------|
|------3-----------------------------------------|
|------------1-3---------------------------------|

 |               |               |                
|------------------------------------------------|
|--------------------------------------------0---|
|------------------------------------------------|
|------3-----3-----------------------------------|

 |               |               |                
|------------------------------------------------|
|------------------------------------------------|
|------------------------------------------------|
|------------3-----------------------------------|

 |               |               |                
|------------------------------------------------|
|------------------------------------------------|
|------------------------------------------------|
|------3-----3-----------------------------------|

 |               |               |                
|------------------------------------------------|
|------0-----------------------------------------|
|------------------------------------------------|
|------------3-----------------------------------|

 |               |               |                
|------------------------------------------------|
|------------------------------------------1-----|
|------------------------------------------------|
|------3---3-------------------------------------|

 |               |               |                
|------------------------------------------------|
|------------------------------------------------|
|------------3-----------------------------------|
|----------3-------------------------------------|

 |               |               |                
|------------------------------------------------|
|------------------------------------------------|
|------3---3-------------------------------------|
|------------------------------------------------|

 |               |               |                
|------------------------------------------------|
|------------------------------------------------|
|----------3-------------------------------------|
|------3-----------------------------------------|

 |               |               |                
|------------------------------------------------|
|------------------------------------------------|
|------3---3-------------------------------------|
|------------------------------------------3-----|

 |               |               |                
|------------------------------------------------|
|------------------------------------------------|
|------------------------------------------------|
|----------1-------------------------------------|

 |               |               |                
|------------------------------------------------|
|------------------------------------------------|
|------------------------------------------------|
|----------1-------------------------------------|

 |               |               |                
|------------------------------------------------|
|----------0-------------------------------------|
|------3-----------------------------------------|
|----------1-------------------------------------|

 |               |               |                
|------------------------------------------------|
|----0-----0-------------------------------------|
|------------------------------------------0-----|
|------------------------------------------------|

 |               |               |                
|------------------------------------------------|
|------------------------------------------------|
|------------------------------------------------|
|----------3-------------------------------------|

 |               |               |                
|------------------------------------------------|
|------------------------------------------------|
|------------------------------------------------|
|----3-----3-------------------------------------|

 |               |               |                
|------------------------------------------------|
|------------------------------------------------|
|------------3-----------------------------------|
|------------------------------------------------|

 |               |               |                
|------------------------------------------------|
|------------------------------------------------|
|----3-----3-------------------------------------|
|------------------------------------------3-----|

 |               |               |                
|------------------------------------------------|
|------------0-----------------------------------|
|------------------------------------------------|
|------------------------------------------------|

 |               |               |                
|------------------------------------------------|
|----0-----0-------------------------------------|
|------------------------------------------------|
|------------------------------------------------|

 |               |               |                
|------------------------------------------------|
|------------------------------------------------|
|------------------------------------------------|
|----1-------------------------------------------|

 |               |               |                
|------------------------------------------------|
|------------------------------------------0-----|
|------------------------------------------------|
|----------3-------------------------------------|

 |               |               |                
|------------------------------------------------|
|------------------------------------------------|
|----------3-------------------------------------|
|------------------------------------------------|

 |               |               |                
|------------------------------------------------|
|------------------------------------------------|
|----3-------------------------------------------|
|----------3-------------------------------------|

 |               |               |                
|------------------------------------------------|
|----0-------------------------------------------|
|----------3-------------------------------------|
|----------3-------------------------------------|

 |               |               |                
|------------------------------------------------|
|------------------------------------------------|
|----3-----3-------------------------------------|
|------------------------------------------------|

 |               |               |                
|------------------------------------------------|
|------------------------------------------------|
|----------3-------------------------------------|
|----3-------------------------------------------|

 |               |               |                
|------------------------------------------------|
|------------------------------------------------|
|----3-----3-------------------------------------|
|------------------------------------------3-----|

 |               |               |                
|------------------------------------------------|
|------------------------------------------------|
|----------3-------------------------------------|
|------------------------------------------------|

 |               |               |                
|------------------------------------------------|
|------------------------------------------------|
|----3-----3-------------------------------------|
|------------------------------------------------|

 |               |               |                
|------------------------------------------------|
|----------3-------------------------------------|
|--------3---------------------------------------|
|----4-----1-------------------------------------|

 |               |               |                
|------------------------------------------------|
|------------------------------------------------|
|----------------------------------------3-------|
|----1---1---------------------------------------|

 |               |               |                
|------------------------------------------------|
|------------------------------------------------|
|------------------------------------------------|
|--------1---3-----------------------------------|

 |               |               |                
|------------------------------------------------|
|------------------------------------------------|
|------------------------------------------------|
|----3---3---------------------------------------|

 |               |               |                
|------------------------------------------------|
|----0-------------------------------------------|
|------------------------------------------------|
|--------3---------------------------------------|

 |               |               |                
|------------------------------------------------|
|----------------------------------------0-------|
|------------------------------------------------|
|----3---3---------------------------------------|

 |               |               |                
|------------------------------------------------|
|------------------------------------------------|
|------------------------------------------------|
|--------3---------------------------------------|

 |               |               |                
|------------------------------------------------|
|------------------------------------------------|
|------------------------------------------------|
|--3-----3---------------------------------3-----|

 |               |               |                
|------------------------------------------------|
|--1---------------------------------------------|
|----------3-------------------------------------|
|--------3---------------------------------------|

 |               |               |                
|------------------------------------------------|
|------------------------------------------------|
|--3-----3---------------------------------------|
|----------------------------------------3-------|

 |               |               |                
|------------------------------------------------|
|------------------------------------------------|
|--------3---------------------------------------|
|------------------------------------------------|

 |               |               |                
|------------------------------------------------|
|------------------------------------------------|
|--3-----3---------------------------------------|
|------------------------------------------------|

 |               |               |                
|------------------------------------------------|
|------------------------------------------------|
|--------3---------------------------------------|
|--3-------1-------------------------------------|

 |               |               |                
|------------------------------------------------|
|------------------------------------------------|
|----------------------------------------3-------|
|--1-----1---------------------------------------|

 |               |               |                
|------------------------------------------------|
|----------0-------------------------------------|
|------------------------------------------------|
|--------1---------------------------------------|

 |               |               |                
|------------------------------------------------|
|--0-----0---------------------------------------|
|------------------------------------------------|
|------------------------------------------------|

 |               |               |                
|------------------------------------------------|
|--------0---------------------------------------|
|--0---------------------------------------------|
|----------3-------------------------------------|

 |               |               |                
|------------------------------------------------|
|----------------------------------------0-------|
|------------------------------------------------|
|--3-----3---------------------------------------|

 |               |               |                
|------------------------------------------------|
|------------------------------------------------|
|--------3---------------------------------------|
|--------3---------------------------------------|

 |               |               |                
|------------------------------------------------|
|------------------------------------------------|
|--3-----3---------------------------------------|
|------------------------------------------------|

 |               |               |                
|------------------------------------------------|
|--------0---------------------------------------|
|------------------------------------------------|
|------------------------------------------------|

 |               |               |                
|------------------------------------------------|
|--0-----0---------------------------------------|
|----------------------------------------0-------|
|------------------------------------------------|

 |               |               |                
|------------------------------------------------|
|--------0---------------------------------------|
|------------------------------------------------|
|--------1---------------------------------------|

 |               |               |                
|------------------------------------------------|
|------------------------------------------------|
|------------------------------------------------|
|--1-----3---------------------------------------|

 |               |               |                
|------------------------------------------------|
|--0---------------------------------------------|
|--------3---------------------------------------|
|--------3---------------------------------------|
            
Submit corrections

comments powered by Disqus
↑ Back to top | Presley Elvis Bass for Are You Lonesome Tonight. Lyrics for acoustic guitar and electric guitar. Tablatures and chords are parodies/interpretations of the original songs. You may use it for private study, scholarship, research or language learning purposes only