» » »

Presley Elvis, American Trilogy Bass tabs (ver.1)

Artists:  A B C D E F G H I J K L M N O P Q R S T U V W X Y Z # 

American Trilogy Bass tabs (ver.1)

Presley Elvis Tabs
 Rating:
4/5 (4 votes)
American Trilogy lessons Tabs too difficult? Try these video lessons and learn fast
                elvis presley_american trilogy

TablEdited by Jan Bjorklund   
You are welcome to request for tabs!
Fingering and positions as suggested by TablEdit, please use common sense.


TablEdited by Jan Bjorklund
Tuning : E A D G 	Time Signature: 4/4



 |               |               |               |                
|----------------------------------------------------------------|
|0---------------------------------------------------------------|
|----------------------------------------------------------------|
|----------------------------------------------------------------|

 |               |               |               |                
|--------------------------------------2-------------------------|
|----------------------------------------------------------------|
|----------------------------------------------------------------|
|----------------------------------------------------------------|

 |               |               |               |                
|----------------------------------------------------------------|
|----------------------------------------------------------------|
|----------------------------------------------------------------|
|----------------------------------------------------------------|

 |               |               |               |                
|----------------------------------------------------------------|
|--------------------------------------2-------------------------|
|----------------------------------------------------------------|
|----------------------------------------------------------------|

 |               |               |               |                
|----------------------------------------------------------------|
|----------------------------------------------------------------|
|0---------------------------------------------------------------|
|----------------------------------------------------------------|

 |               |               |               |                
|----------------------------------------------------------------|
|----------------------------------------------------------------|
|----------------------------------------------------------------|
|----------------------------------------------------------------|

 |               |               |               |                
|----------------------------------------------------------------|
|----------------------------------------------------------------|
|----------------------------------------------------------------|
|----------------------------------------------------------------|

 |               |               |               |                
|----------------------------------------------------------------|
|----------------------------------------------------------------|
|----------------------------------------------------------------|
|----------------------------------------------------------------|

 |               |               |               |                
|----------------------------------------------------------------|
|----------------------------------------------------------------|
|----------------------------------------------------------------|
|----------------------------------------------------------------|

 |               |               |               |                
|----------------------------------------------------------------|
|----------------------------------------------------------------|
|----------------------------------------------------------------|
|----------------------------------------------------------------|

 |               |               |               |                
|----------------------------------------------------------------|
|----------------------------------------------------------------|
|----------------------------------------------------------------|
|----------------------------------------------------------------|

 |               |               |               |                
|----------------------------------------------------------------|
|----------------------------------------------------------------|
|----------------------------------------------------------------|
|----------------------------------------------------------------|

 |               |               |               |                
|----------------------------------------------------------------|
|----------------------------------------------------------------|
|----------------------------------------------------------------|
|----------------------------------------------------------------|

 |               |               |               |                
|----------------------------------------------------------------|
|--------------------------------------2-------------------------|
|----------------------------------------------------------------|
|----------------------------------------------------------------|

 |               |               |               |                
|2---------------------------------------------------------------|
|----------------------------------------------------------------|
|----------------------------------------------------------------|
|----------------------------------------------------------------|

 |               |               |               |                
|----------------------------------------------------------------|
|----------------------------------------------------------------|
|----------------------------------------------------------------|
|----------------------------------------------------------------|

 |               |               |               |                
|----------------------------------------------------------------|
|2---------------------------------------------------------------|
|----------------------------------------------------------------|
|----------------------------------------------------------------|

 |               |               |               |                
|----------------------------------------------------------------|
|----------------------------------------------------------------|
|--------------------------------------2-------------------------|
|----------------------------------------------------------------|

 |               |               |               |                
|----------------------------------------------------------------|
|2---------------------------------------------------------------|
|----------------------------------------------------------------|
|----------------------------------------------------------------|

 |               |               |               |                
|--------------------------------2-----2-------------------------|
|----------------------------------------------------------------|
|----------------------------------------------------------------|
|----------------------------------------------------------------|

 |               |               |               |                
|2---------------------------------------------------------------|
|--------------------------2-------------------------------------|
|----------------------------------------------------------------|
|----------------------------------------------------------------|

 |               |               |               |                
|--------------------------------------2-------------------------|
|----------------------------------------------------------------|
|----------------------------------------------------------------|
|----------------------------------------------------------------|

 |               |               |               |                
|--------------------------2-------------------------------------|
|2---------------------------------------------------------------|
|----------------------------------------------------------------|
|----------------------------------------------------------------|

 |               |               |               |                
|----------------------------------------------------------------|
|--------------------------------------0-------------------------|
|4---------------------------------------------------------------|
|----------------------------------------------------------------|

 |               |               |               |                
|----------------------------------------------------------------|
|0---------------------------------------------------------------|
|--------------------------4-----------2-------------------------|
|----------------------------------------------------------------|

 |               |               |               |                
|----------------------------------------------------------------|
|----------------------------------------------------------------|
|----0---------------------------------0-------------------0-----|
|----------------------------------------------------------------|

 |               |               |               |                
|----------------------------------------------------------------|
|4---------------------------------------------------------------|
|----------------4---------0-------------------------------------|
|----------------------------------------------------------------|

 |               |               |               |                
|----------------------------------------------------------------|
|2---------------------------------------------------------3-----|
|------0-------------------------------4---------4---------------|
|--------------------------------4-------------------------------|

 |               |               |               |                
|----------------------------------------------------------------|
|4-------------------------4-----------2---4---------------------|
|----------------------------------------------------------------|
|----------------------------------------------------------------|

 |               |               |               |                
|----------------------------------------------------------------|
|----------------------------------------------------------------|
|--------------------------4-----------2-------------------------|
|----------------------------------------------------------------|

 |               |               |               |                
|----------------------------------------------------------------|
|--------------------------2-------------------------------------|
|2-----4-------------------------------------------------2-------|
|----------------------------------------------------------------|

 |               |               |               |                
|----------------------------------------------------------------|
|2-------------------------------------4-------------------------|
|------4---2---------------------4-------------------------------|
|----------------------------------------------------------------|

 |               |               |               |                
|----------------------------------------------------------------|
|0-------------------------0-------------------------------------|
|--------------------------------------4-------------------------|
|----------------------------------------------------------------|

 |               |               |               |                
|----------------------------------------------------------------|
|--------------------------2-------------------------------------|
|------2-------------------------------0-------------------0-----|
|----------------------------------------------------------------|

 |               |               |               |                
|----------------------------------------------------------------|
|----------------------------------------------------------------|
|0-------------------------0-------------------------------------|
|----------------------------------------------------------------|

 |               |               |               |                
|----------------------------------------------------------------|
|----------------------------------------------------------------|
|--------------------------------0-----0-------------------------|
|----------------------------------------------------------------|

 |               |               |               |                
|----------------------------------------------------------------|
|----------------------------------------------------------------|
|0---------------------------------------------------------------|
|----------------------------------------------------------------|

 |               |               |               |                
|------11------------------------------4-------------------------|
|2---------------------------------------------------------------|
|----------------------------------------------------------------|
|----------------------------------------------------------------|

 |               |               |               |                
|2-------------------------------2-------------------------------|
|----------------------------------------------------4-----------|
|----------------------------------------------------------------|
|----------------------------------------------------------------|

 |               |               |               |                
|--------------------------------2-------------------------------|
|--------------------------------------0-------------------------|
|----------------------------------------------------------------|
|----------------------------------------------------------------|

 |               |               |               |                
|----------------------------------------------------------------|
|----------------------------------------------------------------|
|----------------------------------------------------------------|
|----------------------------------------------------------------|

 |               |               |               |                
|----------------------------------------------------------------|
|----------------------------------------------------------------|
|------0---------------------------------------------------------|
|0-------------------------------------4-------------------------|

 |               |               |               |                
|----------------------------------------------------------------|
|----------------------------------------------------------------|
|----------------------------------------------------------------|
|2-------------------------------------2-4-----------------------|

 |               |               |               |                
|----------------------------------------------------------------|
|----------------------------------------------------------------|
|--------------------------------2-------------------------------|
|--------------------------------------0-------------------------|

 |               |               |               |                
|----------------------------------------------------------------|
|----------------------------------------------------------------|
|----------------------------------------------------------------|
|2---------------------------------------------------------------|

 |               |               |               |                
|----------------------------------------------------------------|
|----------------------------------------------------------------|
|------0---------------------------------------------------------|
|--------------------------------------2-------------------------|

 |               |                
|--------------------------------|
|0-------------------------------|
|--------------------------------|
|--------------------------------|

 |               |               |               |                
|----------------------------------------------------------------|
|--------------------------------------1-------------------------|
|----------------------------------------------------------------|
|----------------------------------------------------------------|

 |               |               |               |                
|----------------------------------------------------------------|
|------2-----------------------------------------------3---------|
|4---------------------------------------------------------------|
|----------------------------------------------------------------|

 |               |               |               |                
|----------------------------------------------------------------|
|--------------------------------4-------------------------------|
|----------------------------------------------------------------|
|----------------------------------------------------------------|

 |               |               |               |                
|----------------------------------------------------------------|
|----------------------------------------------------------------|
|--------------------------------0-------------------------------|
|----------------------------------------------------------------|

 |               |               |               |                
|----------------------------------------------------------------|
|----------------------------------------------------------------|
|----------------------------------------------------------------|
|----------------------------------------------------------------|

 |               |               |               |                
|----------------------------------------------------------------|
|----------------------------------------------------------------|
|----------------------------------------------------------------|
|----------------------------------------------------------------|

 |               |               |               |                
|----------------------------------------------------------------|
|----------------------------------------------0---0---0---0---0-|
|--------------------------------4-------------------------------|
|----------------------------------------------------------------|

 |               |               |               |                
|----------------------------------------------------------------|
|--0---0---0---0---0---0---0---0-0---0---0---0---0---0---0---4---|
|----------------------------------------------------------------|
|----------------------------------------------------------------|

 |               |               |               |                
|----------------------------------------------------------------|
|4---4---2---2---2-----------------------------------------------|
|--------------------0---0---0---0---0---0---0---0---0---0---0---|
|----------------------------------------------------------------|

 |               |               |               |                
|----------------------------------------------------------------|
|--------------------------------2---2---2---2---2---2---2-------|
|0---0---0---0---0---0---0---0-------------------------------0---|
|----------------------------------------------------------------|

 |               |               |               |                
|----------------------------------------------------------------|
|----------------------------------------------------------------|
|0---0---0---0---0---0---0---0---0---0---0---0-------------------|
|----------------------------------------------4---4---4---4---4-|

 |               |               |               |                
|----------------------------------------------------------------|
|----------------------------------4---4---4---4---4---4---4-----|
|----------------------------------------------------------------|
|--4---4---4---4---4---4---4---4---------------------------------|

 |               |               |               |                
|----------------------------------------------------------------|
|------2-------------0-0-0-0-0-0-0-0-0-0-0-0---------------------|
|----------------------------------------------------------------|
|----------------------------------------------------------------|

 |               |               |               |                
|----------------------------------------------------------------|
|----------------------------------------------------------------|
|0-----2-----2---2---------------2-----4-------------------------|
|----------------------------------------------------------------|

 |               |               |               |                
|----------------------------------------------------------------|
|2-----2-------------------------2-----3-------------------------|
|----------------------------------------------------------------|
|----------------------------------------------------------------|

 |               |               |               |                
|----------------------------------------------------------------|
|------4---------------4---------0-----------------------0-------|
|4---------------------------------------------------------------|
|----------------------------------------------------------------|

 |               |               |               |                
|----------------------------------------------------------------|
|0---------------------------------------------------------------|
|------4-------------------------2---2-------2-------------------|
|----------------------------------------------------------------|

 |               |               |               |                
|----------------------------------------------------------------|
|1-----2-------------------------2-----2-------------------------|
|----------------------------------------------------------------|
|----------------------------------------------------------------|

 |               |               |               |                
|----------------------------------------------------------------|
|----------------------------------------------------------------|
|------0---------0-------0-------0-------------0---0---0---0---0-|
|--------------------------------------0-------------------------|

 |               |               |               |                
|----------------------------------------------------------------|
|----------------------------------------------------------------|
|--0---0---0---0---0---0---0---0---------------------------------|
|----------------------------------------------------------------|
            
Submit corrections

comments powered by Disqus
↑ Back to top | Presley Elvis Bass for American Trilogy. Lyrics for acoustic guitar and electric guitar. Tablatures and chords are parodies/interpretations of the original songs. You may use it for private study, scholarship, research or language learning purposes only