array
(
    
'saycheeseandgetraped' => 'saycheeseandgetraped'
    'preschoolteapartymassacre' 
=> 'preschoolteapartymassacre'
)
Say Cheese And Get Raped Tabs (ver. 1) by Preschool Tea Party Massacre @ AZ CHORDS.COM
» » »

Say Cheese And Get Raped Tabs (ver.1)

Artists:  A B C D E F G H I J K L M N O P Q R S T U V W X Y Z # 

Say Cheese And Get Raped Tabs (ver.1)

Preschool Tea Party Massacre
Rating:
0/5 (0 votes)

Hard to play? Try these video lessons and learn fast.
                #------------------------------------------------------------------------------##

                            SAY CHEESE AND GET RAPED
                   As recorded by Preschool Tea Party Massacre
                 (From the 2006 Album HARDCORE DIED WITH HITLER)

Words and Music by Preschool Tea Party Massacre

Gtr I (D A D G B E) - 'Guitar'
Gtr II (D A D G B E) - 'Guitar Pan Right'

 Intro        Sample
  Cybergrind Q=151
  N.C.         D5                                 Eb5
 4/4
  Gtr I
               PM----|    PM----|           PM--|
  W            S S S S Q  S S S S Q    H    S S S Q  +S   8x
|----------||------------------------|--------------------||
|----------||o-----------------------|-------------------o||
|----------||------------------------|------------9--(9)--||
|----------||------------------------|------------8--(8)--||
|----------||o-0-0-0-0----0-0-0-0----|------0-0-0-7--(7)-o||
|----------||--0-0-0-0----0-0-0-0----|------0-0-0---------||


  Eb5                       N.C.
   >
  +W           +W           W
|------------|------------|------||
|------------|------------|------||
|-(9)--------|-(9)--------|------||
|-(8)--------|-(8)--------|------||
|-(7)--------|-(7)--------|------||
|------------|------------|------||


 Urrrghh
  D5
  PM-----------------------------------------------------------------
  S S S S S S S S S S S S S S S S   S S S S S S S S S S S S S S S S
|---------------------------------|---------------------------------|
|---------------------------------|---------------------------------|
|---------------------------------|---------------------------------|
|---------------------------------|---------------------------------|
|-0-0-0-0-0-0-0-0-0-0-0-0-0-0-0-0-|-0-0-0-0-0-0-0-0-0-0-0-0-0-0-0-0-|
|-0-0-0-0-0-0-0-0-0-0-0-0-0-0-0-0-|-0-0-0-0-0-0-0-0-0-0-0-0-0-0-0-0-|


 -----------------------------------------------------------------|
  S S S S S S S S S S S S S S S S   S S S S S S S S S S S S S S S S
|---------------------------------|------------------------------------|
|---------------------------------|------------------------------------|
|---------------------------------|------------------------------------|
|---------------------------------|------------------------------------|
|-0-0-0-0-0-0-0-0-0-0-0-0-0-0-0-0-|-0-0-0-0-0-0-0-0-0-0-0-0-0-0-0-0----|
|-0-0-0-0-0-0-0-0-0-0-0-0-0-0-0-0-|-0-0-0-0-0-0-0-0-0-0-0-0-0-0-0-0----|


  D5                        N.C.
  PM--------------------|
  E E E E E E E E   E E E E S S S S S S S S
|-----------------|-------------------------|
|-----------------|-------------------------|
|-----------------|-------------------------|
|-----------------|-------------------------|
|-0---0---0---0---|-0---0---5h8-5h8-4h7-4h7-|
|-0---0---0---0---|-0---0-------------------|


   Reeee
    D5
    PM------------------------------|
    E H..         E S E S E S S E S S E    4x
||--------------|--------------------------||
||o-------------|-------------------------o||
||--------------|--------------------------||
||--------------|--------------------------||
||o-0-----------|---0-0-0-0-0-0---0-0-----o||
||--0-----------|---0-0-0-0-0-0---0-0------||


 Wierd Noise    Outro
  N.C.           D5
  Gtr I
                 PM----------|
  Wx2            S    S Q  S S H
|------------||---------------------|
|------------||o--------------------|
|------------||---------------------|
|------------||---------------------|
|------------||o-0----0----0-0------|
|------------||--0----0----0-0------|
|
| Gtr II
| Wx2            W
|------------||---------------------|
|------------||o--------------------|
|------------||---------------------|
|------------||---------------------|
|------------||o-5tr8---------------|
|------------||---------------------|


   PM-----------------------|       PM
   E     S E S E S    S E S S E  4x E H..
|--------------------------------||----------*|
|-------------------------------o||----------*|
|--------------------------------||----------*|
|--------------------------------||----------*|
|--------0-0-0-0-0----0---0-0---o||-0--------*|
|--------0-0-0-0-0----0---0-0----||-0--------*|
|
|                                   PM
| +H             H               4x E H..
|--------------------------------||----------*|
|-------------------------------o||----------*|
|--------------------------------||----------*|
|--------------------------------||----------*|
|-(5tr8)---------4tr7-----------o||-0--------*|
|--------------------------------||-0--------*|


Duration Legend
---------------
W - whole; H - half; Q - quarter; E - 8th; S - 16th; T - 32nd; X - 64th; a - acciaccatura
+ - note tied to previous; . - note dotted; .. - note double dotted
Uncapitalized letters represent notes that are staccato (1/2 duration)
Irregular groupings are notated above the duration line
Duration letters will always appear directly above the note/fret number it represents the
duration for.  Duration letters with no fret number below them represent rests.  Multi-
bar rests are notated in the form Wxn, where n is the number of bars to rest for.  Low
melody durations appear below the staff

Tablature Legend
----------------
 h   - hammer-on
 p   - pull-off
 b   - bend
 pb  - pre-bend
 r   - bend release (if no number after the r, then release immediately)
 /\  - slide into or out of (from/to "nowhere")
 s   - legato slide
 S   - shift slide
  - natural harmonic
[n]  - artificial harmonic
n(n) - tapped harmonic
 ~   - vibrato
 tr  - trill
 T   - tap
 TP  - trem. picking
 PM  - palm muting
\n/  - tremolo bar dip; n = amount to dip
 \n  - tremolo bar down
 n/  - tremolo bar up
/n\  - tremolo bar inverted dip
 =   - hold bend; also acts as connecting device for hammers/pulls
 <>  - volume swell (louder/softer)
 x   - on rhythm slash represents muted slash
 o   - on rhythm slash represents single note slash

Misc Legend
-----------
 |  - bar
||  - double bar
||o - repeat start
o|| - repeat end
*|  - double bar (ending)
 :  - bar (freetime)
 $  - Segno
 &  - Coda
Tempo markers -  = BPM(8/16=s8/s16), where s8 = swing 8ths, s16 = swing 16ths


***************************************************************************************
***************************************************************************************
            
Hard to play? Try these video lessons and learn fast. | Correct




comments powered by Disqus
↑ Back to top | Tablatures and chords are parodies/interpretations of the original songs. You may use it for private study, scholarship, research or language learning purposes only