>
 >
Pope Mobile Drive By

Pope Mobile Drive By Guitar Tabs

Preschool Tea Party Massacre - Pope Mobile Drive By chords, tabs, tablatures, lyrics

Guitar lessons | Add/correct | Request | Top 50 tabs Artists:  A B C D E F G H I J K L M N O P Q R S T U V W X Y Z 0-9

Pope Mobile Drive By Guitar Tabs – Preschool Tea Party Massacre

CD, Sheet music, Poster

Do you like Pope Mobile Drive By? Share with your friends now
Tabs
#------------------------------------------------------------------------------##

                              POPE MOBILE DRIVE BY
                   As recorded by Preschool Tea Party Massacre
                 (From the 2006 Album HARDCORE DIED WITH HITLER)

Words and Music by Preschool Tea Party Massacre

Gtr I (D A D G B E) - 'Dist. Gtr'
Gtr II (D A D G B E) - 'Synth'

   Urrrrrr
    Cybergrind Q=155
    D5
   4/4
    Gtr I
    PM--------------------------------|   PM----|
    S S E S S E S S E S S E   E S E S E E S S S S E
||--------------------------|-----------------------|
||o-------------------------|-----------------------|
||--------------------------|-----------------------|
||--------------------------|-----------------------|
||o-0-0---0-0---0-0---0-0---|-0---0---0---0-0-0-0---|
||--0-0---0-0---0-0---0-0---|-0---0---0---0-0-0-0---|


  PM--------------------------------|   PM----|
  S S E S S E S S E S S E   E S E S E E S S S S E
|-------------------------|---------------------------||
|-------------------------|--------------------------o||
|-------------------------|---------------------------||
|-------------------------|---------------------------||
|-0-0---0-0---0-0---0-0---|-0---0---0---0-0-0-0------o||
|-0-0---0-0---0-0---0-0---|-0---0---0---0-0-0-0-------||


 Synth Bridge
  N.C.
  Gtr II
  e e e e e e e e   e e e e e e e e   e e e e e e e e   e e e e e e Q
|-----------------|-----------------|-----------------|----------------|
|-----------------|-----------------|-----------------|----------------|
|-----------------|-----------------|-----------------|----------------|
|-----------------|-----------------|-----------------|----------------|
|-3-3-3-3-3-3-3-3-|-3-3-3-3-3-3-3-3-|-3-3-3-3-3-3-3-3-|-3-3-3-3-3-3----|
|-----------------|-----------------|-----------------|----------------|


   Yaaargh yarrgh
    D5F5E5D5E5D5E5F5  D5F5E5D5E5D5E5F5  D5F5E5D5E5D5E5F5  D5F5E5D5E5
    Gtr I
    PM--------------------------------------------------------------|
    E E E E E E E E   E E E E E E E E   E E E E E E E E   E E E E E E Q
||------------------|-----------------|-----------------|------------------||
||o-----------------|-----------------|-----------------|-----------------o||
||------------------|-----------------|-----------------|------------------||
||------------------|-----------------|-----------------|------------------||
||o-0-3-2-0-2-0-2-3-|-0-3-2-0-2-0-2-3-|-0-3-2-0-2-0-2-3-|-0-3-2-0-2-2-----o||
||--0-3-2-0-2-0-2-3-|-0-3-2-0-2-0-2-3-|-0-3-2-0-2-0-2-3-|-0-3-2-0-2-2------||


   Slow Down
    Q=110
    D5F5E5D5E5D5E5F5  D5F5E5D5E5D5E5
    PM-----------------------------------
                                  |-3-|
    E E E E E E E E   E E E E E E E E E
||------------------|-------------------|
||o-----------------|-------------------|
||------------------|-------------------|
||------------------|-------------------|
||o-0-3-2-0-2-0-2-3-|-0-3-2-0-2-0-2-2-2-|
||--0-3-2-0-2-0-2-3-|-0-3-2-0-2-0-2-2-2-|


  D5F5E5D5E5D5E5F5  D5F5E5D5E5D5E5
 -----------------------------------|
                                |-3-|
  E E E E E E E E   E E E E E E E E E
|-----------------|---------------------||
|-----------------|--------------------o||
|-----------------|---------------------||
|-----------------|---------------------||
|-0-3-2-0-2-0-2-3-|-0-3-2-0-2-0-2-2-2--o||
|-0-3-2-0-2-0-2-3-|-0-3-2-0-2-0-2-2-2---||


 Sample
  Q=155
  D5
  PM
  E H..         W          W          W
|-------------|----------|----------|------|
|-------------|----------|----------|------|
|-------------|----------|----------|------|
|-------------|----------|----------|------|
|-0-----------|----------|----------|------|
|-0-----------|----------|----------|------|


    N.C.
    Gtr II
    e e e s e e e s s s   e e e s e e e s s s
||------------------6---|-----------------6---|
||o-6-7-6-7-6-7-6-7---9-|-6-7-6-7-6-7-6-7---9-|
||----------------------|---------------------|
||----------------------|---------------------|
||o---------------------|---------------------|
||----------------------|---------------------|


  e e e s e e e s s s   e e e s e e e s s s
|-----------------6---|-----------------6----||
|-6-7-6-7-6-7-6-7---9-|-6-7-6-7-6-7-6-7---9-o||
|---------------------|----------------------||
|---------------------|----------------------||
|---------------------|---------------------o||
|---------------------|----------------------||


   Outro
    D5
    Gtr II
    e e e  s e e e s s s   e e e  s e e e s s s
||-------------------6---|------------------6---|
||o-6-7-6--7-6-7-6-7---9-|-6-7-6--7-6-7-6-7---9-|
||-----------------------|----------------------|
||-----------------------|----------------------|
||o----------------------|----------------------|
||-----------------------|----------------------|
|
|   Gtr I
|   PM|                    PM|
|   E E H.                 E E H.
||-----------------------|----------------------|
||o----------------------|----------------------|
||-----------------------|----------------------|
||-----------------------|----------------------|
||o-0-0------------------|-0-0------------------|
||--0-0------------------|-0-0------------------|


  e e e  s e e e s s s   e e e  s e e e E.
|------------------6---|----------------------||
|-6-7-6--7-6-7-6-7---9-|-6-7-6--7-6-7-6------o||
|----------------------|----------------------||
|----------------------|----------------------||
|----------------------|---------------------o||
|----------------------|----------------------||
|
| PM|                    PM|
| E E H.                 E E H.
|----------------------|----------------------||
|----------------------|---------------------o||
|----------------------|----------------------||
|----------------------|----------------------||
|-0-0------------------|-0-0-----------------o||
|-0-0------------------|-0-0------------------||


Duration Legend
---------------
W - whole; H - half; Q - quarter; E - 8th; S - 16th; T - 32nd; X - 64th; a - acciaccatura
+ - note tied to previous; . - note dotted; .. - note double dotted
Uncapitalized letters represent notes that are staccato (1/2 duration)
Irregular groupings are notated above the duration line
Duration letters will always appear directly above the note/fret number it represents the
duration for.  Duration letters with no fret number below them represent rests.  Multi-
bar rests are notated in the form Wxn, where n is the number of bars to rest for.  Low
melody durations appear below the staff

Tablature Legend
----------------
 h   - hammer-on
 p   - pull-off
 b   - bend
 pb  - pre-bend
 r   - bend release (if no number after the r, then release immediately)
 /\  - slide into or out of (from/to "nowhere")
 s   - legato slide
 S   - shift slide
  - natural harmonic
[n]  - artificial harmonic
n(n) - tapped harmonic
 ~   - vibrato
 tr  - trill
 T   - tap
 TP  - trem. picking
 PM  - palm muting
\n/  - tremolo bar dip; n = amount to dip
 \n  - tremolo bar down
 n/  - tremolo bar up
/n\  - tremolo bar inverted dip
 =   - hold bend; also acts as connecting device for hammers/pulls
 <>  - volume swell (louder/softer)
 x   - on rhythm slash represents muted slash
 o   - on rhythm slash represents single note slash

Misc Legend
-----------
 |  - bar
||  - double bar
||o - repeat start
o|| - repeat end
*|  - double bar (ending)
 :  - bar (freetime)
 $  - Segno
 &  - Coda
Tempo markers -  = BPM(8/16=s8/s16), where s8 = swing 8ths, s16 = swing 16ths


***************************************************************************************
***************************************************************************************





Comments


Popular Preschool Tea Party Massacre tabs & chords
Charles Lindbergh Was A Fuck Machine Tabs
Cherry Kool-aid And K-mart Sneakers Are Key Ingredients For Mass Suicide Tabs
Doggie Style Cyber Sex With Marilyn Monrobot Tabs
Drop It Asshole Tabs
Hiv Infected Fecal Matter Tabs
I Swerved To Miss A Cat And Hit 36 Kids Tabs
Im Gonna Die On A Toilet Arent I Tabs
Im Too Old For This Shit Tabs
Say Cheese And Get Raped Tabs
Why Are Fat Ugly People Always The Artistic Ones Tabs


Song lyrics



↑ Back to top | Tablatures and chords are parodies/interpretations of the original songs. You may use it for private study, scholarship, research or language learning purposes only
© 2014 AZChords.com Contact us | Privacy policy | DMCA | Add/correct tabs | Request tabs | Top 50 tabs