» » »

Preschool Tea Party Massacre, I Swerved To Miss A Cat And Hit 36 Kids Tabs (ver.1)

Artists:  A B C D E F G H I J K L M N O P Q R S T U V W X Y Z # 

I Swerved To Miss A Cat And Hit 36 Kids Tabs (ver.1)

Preschool Tea Party Massacre Tabs
 Rating:
4/5 (4 votes)
I Swerved To Miss A Cat And Hit 36 Kids lessons Tabs too difficult? Try these video lessons and learn fast
1
                Gtr I (D A D G B E) - 'Untitled'
Gtr II (E A D G B E) - 'Untitled'
Gtr III (E A D G B E) - 'Untitled'

   Intro
    Q=140
    C   F     G  D      C   F     G  D        C   F     G  D
   4/4
    Gtr II
    e e e. E.  E S E.   e e e. E.  E S E.     e e e. E.  E S E.
||--------------------|--------------------||--------------------|
||o-------------------|-------------------o||--------------------|
||--------------------|--------------------||--------------------|
||--------------------|--------------------||--------------------|
||o-3-3-8--8--10-5-5--|-3-3-8--8--10-5-5--o||-3-3-8--8--10-5-5---|
||--------------------|--------------------||--------------------|


   Verse
    Q=85
    D5                      F5D5E5F5  D5              F5E5  D5E5F5  E5
    Gtr III
    S S E   S S E   S S E   S S E     S S E   S S E   E   E   E   E
||--8-7-6---8-7-6---8-7-6---8-7-6---|-8-7-6---8-7-6---5---3---1---0-----||
||o---------------------------------|----------------------------------o||
||----------------------------------|-----------------------------------||
||----------------------------------|-----------------------------------||
||o---------------------------------|----------------------------------o||
||----------------------------------|-----------------------------------||
|
|   Gtr I
|   PM--------------------------------------------------------------|
|                                                     |--3--| |--3--|
|   S S S S S S S S S S S S S S S S   S S S S S S S S E E   E E E   E
||----------------------------------|-----------------------------------||
||o---------------------------------|----------------------------------o||
||----------------------------------|-----------------------------------||
||----------------------------------|-----------------------------------||
||o-0-0-0-0-0-0-0-0-0-0-0-0-3-0-2-3-|-0-0-0-0-0-0-0-0-3-2---0-2-3---2--o||
||--0-0-0-0-0-0-0-0-0-0-0-0-3-0-2-3-|-0-0-0-0-0-0-0-0-3-2---0-2-3---2---||


 Interlude
  C   C#C EbC   EbC   C#C EbC   Eb  C   C#C EbC   EbC   C#C EbC   Eb
  Gtr II
  S S S S S S S S S S S S S S S S   S S S S S S S S S S S S S S S S
|---------------------------------|---------------------------------|
|---------------------------------|---------------------------------|
|---------------------------------|---------------------------------|
|---------------------------------|---------------------------------|
|-3-3-4-3-6-3-3-6-3-3-4-3-6-3-3-6-|-3-3-4-3-6-3-3-6-3-3-4-3-6-3-3-6-|
|---------------------------------|---------------------------------|


   Out-Chorus
    D5
    Gtr III
    E.       E.       E.   E.     E     E
||--5--------1--------3----0------1-----3-|
||o---------------------------------------|
||----------------------------------------|
||----------------------------------------|
||o---------------------------------------|
||----------------------------------------|
|
|   Gtr I
|   PM-----|    PM--------------------|
|   T  S T S S  T S T S  Q    T S   T S E
||----------------------------------------|
||o---------------------------------------|
||----------------------------------------|
||----------------------------------------|
||o-0--0-0-0----0-0-0-0-------0-0---0-0---|
||--0--0-0-0----0-0-0-0-------0-0---0-0---|


  D5
  E.       E.       E.   Q..
|-5--------1--------3----8--------------||
|--------------------------------------o||
|---------------------------------------||
|---------------------------------------||
|--------------------------------------o||
|---------------------------------------||
|
| PM-------------------------------|
| T  S T S S  T S T S  Q     T S T S E
|---------------------------------------||
|--------------------------------------o||
|---------------------------------------||
|---------------------------------------||
|-0--0-0-0----0-0-0-0--------0-0-0-0---o||
|-0--0-0-0----0-0-0-0--------0-0-0-0----||


  D5
  Gtr I
  T S T S Q  H    S
|----------------------*|
|----------------------*|
|----------------------*|
|----------------------*|
|-0-0-0-0--------------*|
|-0-0-0-0--------------*|



Duration Legend
---------------
W - whole; H - half; Q - quarter; E - 8th; S - 16th; T - 32nd; X - 64th; a - acciaccatura
+ - note tied to previous; . - note dotted; .. - note double dotted
Uncapitalized letters represent notes that are staccato (1/2 duration)
Irregular groupings are notated above the duration line
Duration letters will always appear directly above the note/fret number it represents the
duration for.  Duration letters with no fret number below them represent rests.  Multi-
bar rests are notated in the form Wxn, where n is the number of bars to rest for.  Low
melody durations appear below the staff

Tablature Legend
----------------
 h   - hammer-on
 p   - pull-off
 b   - bend
 pb  - pre-bend
 r   - bend release (if no number after the r, then release immediately)
 /\  - slide into or out of (from/to "nowhere")
 s   - legato slide
 S   - shift slide
 - natural harmonic
[n]  - artificial harmonic
n(n) - tapped harmonic
 ~   - vibrato
 tr  - trill
 T   - tap
 TP  - trem. picking
 PM  - palm muting
\n/  - tremolo bar dip; n = amount to dip
 \n  - tremolo bar down
 n/  - tremolo bar up
/n\  - tremolo bar inverted dip
 =   - hold bend; also acts as connecting device for hammers/pulls
 <> - volume swell (louder/softer)
 x   - on rhythm slash represents muted slash
 o   - on rhythm slash represents single note slash

Misc Legend
-----------
 |  - bar
||  - double bar
||o - repeat start
o|| - repeat end
*|  - double bar (ending)
 :  - bar (freetime)
 $  - Segno
 &  - Coda
Tempo markers -  = BPM(8/16=s8/s16), where s8 = swing 8ths, s16 = swing 16ths
            
Submit corrections

comments powered by Disqus
↑ Back to top | Preschool Tea Party Massacre Tabs for I Swerved To Miss A Cat And Hit 36 Kids. Lyrics for acoustic guitar and electric guitar. 1 Tablatures and chords are parodies/interpretations of the original songs. You may use it for private study, scholarship, research or language learning purposes only