» » »

Preschool Tea Party Massacre, Im Gonna Die On A Toilet Arent I Tabs (ver.1)

Artists:  A B C D E F G H I J K L M N O P Q R S T U V W X Y Z # 

Im Gonna Die On A Toilet Arent I Tabs (ver.1)

Preschool Tea Party Massacre Tabs
 Rating:
4/5 (4 votes)
Im Gonna Die On A Toilet Arent I lessons Tabs too difficult? Try these video lessons and learn fast
1
                #------------------------------------------------------------------------------##

                      I'M GONNA DIE ON A TOILET, AREN'T I?
                   As recorded by Preschool Tea Party Massacre
                     (From the 2006 Album DROP IT a**hole!)

Words and Music by Preschool Tea Party Massacre

Gtr I (C G C F A D) - 'Guitar Pan Left'
Gtr II (C G C F A D) - 'Guitar Pan Right'

 Intro Sample
  Cybergrind Q=152
  N.C.
 4/4
  Gtr I
  Wx8
|--------||
|--------||
|--------||
|--------||
|--------||
|--------||


   Urrrr
    D5    N.C.  D5      N.C.       D5    N.C.  D5      N.C.
    Gtr I
    PM--|       PM--|              PM--|       PM--|
    S S E  H    S S E   W          S S E  H    S S E   W     4x
||--------------------|----------|-------------------|-------||
||o-------------------|----------|-------------------|------o||
||--------------------|----------|-------------------|-------||
||--------------------|----------|-------------------|-------||
||o-0-0-0--8----0-0-0-|-5--------|-0-0-0--7----0-0-0-|-4----o||
||--0-0-0-------0-0-0-|----------|-0-0-0-------0-0-0-|-------||
|
|   Gtr II
|   PM--|       PM--|              PM--|       PM--|
|   S S E  H    S S E   W          S S E  H    S S E   W     4x
||--------------------|----------|-------------------|-------||
||o-------------------|----------|-------------------|------o||
||--------------------|----------|-------------------|-------||
||--------------------|----------|-------------------|-------||
||o-0-0-0-12----0-0-0-|-8--------|-0-0-0-10----0-0-0-|-7----o||
||--0-0-0-------0-0-0-|----------|-0-0-0-------0-0-0-|-------||


  D5    N.C.      D5      N.C.
  PM--|           PM--|
  S S E  H        S S E   W
|-----------------------|--------------|
|-----------------------|--------------|
|-----------------------|--------------|
|-----------------------|--------------|
|-0-0-0--8--------0-0-0-|-5------------|
|-0-0-0-----------0-0-0-|--------------|
|
| PM--|
| S S E  Q.    Q.         Q.   Q.   Q
|-----------------------|--------------|
|-----------------------|--------------|
|-----------------------|--------------|
|-----------------------|--------------|
|-0-0-0-12----10--------|-8----7----5--|
|-0-0-0-----------------|--------------|


  D5      N.C.      D5      N.C.     D5  N.C.
   PM---|           PM--|            PM|
   S  S E  H        S S E   H        E E  Q
|-------------------------|------------------|
|-------------------------|------------------|
|-------------------------|------------------|
|-------------------------|------------------|
|--0--0-0--7--------0-0-0-|-4--------0-0--7--|
|--0--0-0-----------0-0-0-|----------0-0-----|
|
| +Q       Q.    Q.         Q.    Q.      Q
|-------------------------|------------------|
|-------------------------|------------------|
|-------------------------|------------------|
|-------------------------|------------------|
|-(5)-----12----10--------|-8----13------12--|
|-------------------------|------------------|


  D5       N.C.      D5      N.C.
    PM---|           PM--|
    S  S E  H        S S E   W
|--------------------------|--------------|
|--------------------------|--------------|
|--------------------------|--------------|
|--------------------------|--------------|
|---0--0-0--8--------0-0-0-|-5------------|
|---0--0-0-----------0-0-0-|--------------|
|
|  +Q       Q.    Q.         Q.   Q.   Q
|--------------------------|--------------|
|--------------------------|--------------|
|--------------------------|--------------|
|--------------------------|--------------|
|-(12)-----12----10--------|-8----7----5--|
|--------------------------|--------------|


  D5      N.C.      D5      N.C.     D5  N.C.
   PM---|           PM--|            PM|
   S  S E  H        S S E   H        E E  Q
|-------------------------|------------------|
|-------------------------|------------------|
|-------------------------|------------------|
|-------------------------|------------------|
|--0--0-0--7--------0-0-0-|-4--------0-0--7--|
|--0--0-0-----------0-0-0-|----------0-0-----|
|
| +Q       Q.    Q.         Q.    Q.      Q
|-------------------------|------------------|
|-------------------------|------------------|
|-------------------------|------------------|
|-------------------------|------------------|
|-(5)-----12----10--------|-8----10------13--|
|-------------------------|------------------|


    D5    N.C.  D5      N.C.       D5    N.C.  D5      N.C.
    PM--|       PM--|              PM--|       PM--|
    S S E  H    S S E   W          S S E  H    S S E   W
||--------------------|----------|-------------------|-------||
||o-------------------|----------|-------------------|------o||
||--------------------|----------|-------------------|-------||
||--------------------|----------|-------------------|-------||
||o-0-0-0--8----0-0-0-|-5--------|-0-0-0--7----0-0-0-|-4----o||
||--0-0-0-------0-0-0-|----------|-0-0-0-------0-0-0-|-------||
|
|   PM--|       PM--|              PM--|       PM--|
|   S S E  H    S S E   W          S S E  H    S S E   W
||--------------------|----------|-------------------|-------||
||o-------------------|----------|-------------------|------o||
||--------------------|----------|-------------------|-------||
||--------------------|----------|-------------------|-------||
||o-0-0-0-12----0-0-0-|-8--------|-0-0-0-10----0-0-0-|-7----o||
||--0-0-0-------0-0-0-|----------|-0-0-0-------0-0-0-|-------||


 Outro
  D5
  Gtrs I, II
  PM--|
  S S E H.        Wx5
|---------------|--------*|
|---------------|--------*|
|---------------|--------*|
|---------------|--------*|
|-0-0-0---------|--------*|
|-0-0-0---------|--------*|


Duration Legend
---------------
W - whole; H - half; Q - quarter; E - 8th; S - 16th; T - 32nd; X - 64th; a - acciaccatura
+ - note tied to previous; . - note dotted; .. - note double dotted
Uncapitalized letters represent notes that are staccato (1/2 duration)
Irregular groupings are notated above the duration line
Duration letters will always appear directly above the note/fret number it represents the
duration for.  Duration letters with no fret number below them represent rests.  Multi-
bar rests are notated in the form Wxn, where n is the number of bars to rest for.  Low
melody durations appear below the staff

Tablature Legend
----------------
 h   - hammer-on
 p   - pull-off
 b   - bend
 pb  - pre-bend
 r   - bend release (if no number after the r, then release immediately)
 /\  - slide into or out of (from/to "nowhere")
 s   - legato slide
 S   - shift slide
  - natural harmonic
[n]  - artificial harmonic
n(n) - tapped harmonic
 ~   - vibrato
 tr  - trill
 T   - tap
 TP  - trem. picking
 PM  - palm muting
\n/  - tremolo bar dip; n = amount to dip
 \n  - tremolo bar down
 n/  - tremolo bar up
/n\  - tremolo bar inverted dip
 =   - hold bend; also acts as connecting device for hammers/pulls
 <>  - volume swell (louder/softer)
 x   - on rhythm slash represents muted slash
 o   - on rhythm slash represents single note slash

Misc Legend
-----------
 |  - bar
||  - double bar
||o - repeat start
o|| - repeat end
*|  - double bar (ending)
 :  - bar (freetime)
 $  - Segno
 &  - Coda
Tempo markers -  = BPM(8/16=s8/s16), where s8 = swing 8ths, s16 = swing 16ths


***************************************************************************************
***************************************************************************************
            
Submit corrections

comments powered by Disqus
↑ Back to top | Preschool Tea Party Massacre Tabs for Im Gonna Die On A Toilet Arent I. Lyrics for acoustic guitar and electric guitar. 1 Tablatures and chords are parodies/interpretations of the original songs. You may use it for private study, scholarship, research or language learning purposes only