» » »

Preschool Tea Party Massacre, If You Got The Hiv Holla At Us Cause We Never Rock Jimmy Hats Tabs (ver.1)

Artists:  A B C D E F G H I J K L M N O P Q R S T U V W X Y Z # 

If You Got The Hiv Holla At Us Cause We Never Rock Jimmy Hats Tabs (ver.1)

Preschool Tea Party Massacre Tabs
Rating:
0/5 (0 votes)
Hard to play? Try these video lessons and learn fast.
                #------------------------------------------------------------------------------##

        IF YOU GOT THE HIV. HOLLA AT US (CAUSE WE NEVER ROCK JIMMY HATS)
                   As recorded by Preschool Tea Party Massacre
                 (From the 2006 Album HARDCORE DIED WITH HITLER)

Words and Music by Preschool Tea Party Massacre

Gtr I (D A D G B E) - 'Guitar'

 Intro Sample
  Cybergrind Q=131
  N.C.
 4/4
  Gtr I
  Wx5
|--------||
|--------||
|--------||
|--------||
|--------||
|--------||


   Guitar Enters
    D5                                    N.C.
    PM----------------------------------|
    |-3-| |-3-| |-3-| |-3-|   |-3-| |-3-| |-3-| |-3-|
    E E E E E E E E E E E E   E E E E E E E E E E E E
||--------------------------|-------------------------|
||o-------------------------|-------------------------|
||--------------------------|-------------------------|
||--------------------------|-------------0-1-4-0-1-4-|
||o-0-0-0-0-0-0-0-0-0-0-0-0-|-0-0-0-0-0-0-------------|
||--0-0-0-0-0-0-0-0-0-0-0-0-|-0-0-0-0-0-0-------------|


  D5                                    N.C.
  PM----------------------------------|
  |-3-| |-3-| |-3-| |-3-|   |-3-| |-3-| |-3-| |-3-|
  E E E E E E E E E E E E   E E E E E E E E E E E E
|-------------------------|-----------------------------||
|-------------------------|----------------------------o||
|-------------------------|-----------------------------||
|-------------------------|-------------0-1-4-0-1-4-----||
|-0-0-0-0-0-0-0-0-0-0-0-0-|-0-0-0-0-0-0----------------o||
|-0-0-0-0-0-0-0-0-0-0-0-0-|-0-0-0-0-0-0-----------------||


 Synth
  Q=175
  N.C.
  W          W          W          W
|----------|----------|----------|------||
|----------|----------|----------|------||
|----------|----------|----------|------||
|----------|----------|----------|------||
|----------|----------|----------|------||
|----------|----------|----------|------||


 Noise & Chugs
                                                     Q=95
  DbEbb5   Db5       Ebb5   Db5       Ebb5   Db5     D5
                                                    2/4
                                                     PM----|   PM----|
                                                     |-3-|     |-3-|
  E E Q.   E E E   E E Q.   E E E   E E Q.   E E E   S S S S S S S S S S
|----------------|----------------|----------------|----------------------|
|----------------|----------------|----------------|----------------------|
|----------------|----------------|----------------|----------------------|
|-6s7------6-6---|-6s7------6-6---|-6s7------6-6---|----------------------|
|-5s6------5-5---|-5s6------5-5---|-5s6------5-5---|-0-0-0-0---0-0-0-0----|
|----------------|----------------|----------------|-0-0-0-0---0-0-0-0----|


  Q=175                                              Q=95
  DbEbb5   Db5       Ebb5   Db5       Ebb5   Db5     D5
 4/4
                                                     PM----|   PM----|
                                                     |-3-|     |-3-|
  E E Q.   E E E   E E Q.   E E E   E E Q.   E E E   S S S S S S S S S S H
|----------------|----------------|----------------|--------------------------||
|----------------|----------------|----------------|--------------------------||
|----------------|----------------|----------------|--------------------------||
|-6s7------6-6---|-6s7------6-6---|-6s7------6-6---|--------------------------||
|-5s6------5-5---|-5s6------5-5---|-5s6------5-5---|-0-0-0-0---0-0-0-0--------||
|----------------|----------------|----------------|-0-0-0-0---0-0-0-0--------||


   Chugga Chugga
    D5
    PM----|   PM----|   PM----|   PM----|
    |-3-|     |-3-|     |-3-|     |-3-|
    S S S S S S S S S S S S S S S S S S S S
||------------------------------------------|
||o-----------------------------------------|
||------------------------------------------|
||------------------------------------------|
||o-0-0-0-0---0-0-0-0---0-0-0-0---0-0-0-0---|
||--0-0-0-0---0-0-0-0---0-0-0-0---0-0-0-0---|


  PM----|   PM----|   PM----|   PM----|
  |-3-|     |-3-|     |-3-|     |-3-|
  S S S S S S S S S S S S S S S S S S S S    4x
|--------------------------------------------||
|-------------------------------------------o||
|--------------------------------------------||
|--------------------------------------------||
|-0-0-0-0---0-0-0-0---0-0-0-0---0-0-0-0-----o||
|-0-0-0-0---0-0-0-0---0-0-0-0---0-0-0-0------||


 Outro
  Q=175
  N.C.       D5
             PM----|      PM----|        PM----|
             |-3-|        |-3-|          |-3-|
  W          S S S S Q  S S S S S Q  S   S S S S H.      S
|----------|---------------------------|-------------------*|
|----------|---------------------------|-------------------*|
|----------|---------------------------|-------------------*|
|----------|---------------------------|-------------------*|
|----------|-0-0-0-0------0-0-0-0------|-0-0-0-0-----------*|
|----------|-0-0-0-0------0-0-0-0------|-0-0-0-0-----------*|


Duration Legend
---------------
W - whole; H - half; Q - quarter; E - 8th; S - 16th; T - 32nd; X - 64th; a - acciaccatura
+ - note tied to previous; . - note dotted; .. - note double dotted
Uncapitalized letters represent notes that are staccato (1/2 duration)
Irregular groupings are notated above the duration line
Duration letters will always appear directly above the note/fret number it represents the
duration for.  Duration letters with no fret number below them represent rests.  Multi-
bar rests are notated in the form Wxn, where n is the number of bars to rest for.  Low
melody durations appear below the staff

Tablature Legend
----------------
 h   - hammer-on
 p   - pull-off
 b   - bend
 pb  - pre-bend
 r   - bend release (if no number after the r, then release immediately)
 /\  - slide into or out of (from/to "nowhere")
 s   - legato slide
 S   - shift slide
  - natural harmonic
[n]  - artificial harmonic
n(n) - tapped harmonic
 ~   - vibrato
 tr  - trill
 T   - tap
 TP  - trem. picking
 PM  - palm muting
\n/  - tremolo bar dip; n = amount to dip
 \n  - tremolo bar down
 n/  - tremolo bar up
/n\  - tremolo bar inverted dip
 =   - hold bend; also acts as connecting device for hammers/pulls
 <>  - volume swell (louder/softer)
 x   - on rhythm slash represents muted slash
 o   - on rhythm slash represents single note slash

Misc Legend
-----------
 |  - bar
||  - double bar
||o - repeat start
o|| - repeat end
*|  - double bar (ending)
 :  - bar (freetime)
 $  - Segno
 &  - Coda
Tempo markers -  = BPM(8/16=s8/s16), where s8 = swing 8ths, s16 = swing 16ths


***************************************************************************************
***************************************************************************************
            

comments powered by Disqus
↑ Back to top | Preschool Tea Party Massacre Tabs for If You Got The Hiv Holla At Us Cause We Never Rock Jimmy Hats. Lyrics for acoustic guitar and electric guitar. Tablatures and chords are parodies/interpretations of the original songs. You may use it for private study, scholarship, research or language learning purposes only