» » »

Praxis, Interworld And The New Innocence Tabs (ver.1)

Artists:  A B C D E F G H I J K L M N O P Q R S T U V W X Y Z # 

Interworld And The New Innocence Tabs (ver.1)

Praxis Tabs
 Rating:
4.4/5 (7 votes)
Interworld And The New Innocence lessons Tabs too difficult? Try these video lessons and learn fast
1
                (Intro)
----------------------------------------------------------------------------
                The Interworld And The New Innocence - Praxis
----------------------------------------------------------------------------

The Interworld And The New Innocence - Praxis



This was tabbed totally by ear so if you think there's anything weird about
thoughts or suggestions. I bassicly looked at the video of Buckethead
playing it live and I looked at his fingers moving and tryed my best to put
it into writing! I also listened to the track itself to try and get it the
best I could!


The first time he plays it it sounds like this (he also plays it one or two
more times somewhere during the song I think):
                       
|-----------------------------------------------------|
|-------------------------------------10-----10-------|
|----------------------------7-7-7--------7------7----|
|------------------11-11-11---------------------------|
|-----------9-9-9-------------------------------------|
|----7-7-7--------------------------------------------|


|-----------------------------------------------------|
|-----------------------------------------------------|
|----------------------------7-7-7----6-----6---------|
|------------------11-11-11--------------7-----7------|
|-----------9-9-9-------------------------------------|
|----7-7-7--------------------------------------------|


|-----------------------------------------------------|
|-----------------------------------------------------|
|-------------------------4-4-4----0-----0------------|
|------------------7-7-7--------------4-----4---------|
|-----------5-5-5-------------------------------------|
|----3-3-3--------------------------------------------|


|-----------------------------------------------------|
|-----------------------------------------------------|
|-----------------------------------------------------|
|------------------4-4-4-4-4-4----5--4----------------|
|-----------5-5-5-----------------------5-------------|
|----3-3-3--------------------------------------------|


And then the rest is almost the same except for the last part:


|-----------------------------------------------------|
|-------------------------------------10-----10-------|
|----------------------------7-7-7--------7------7----|
|------------------11-11-11---------------------------|
|-----------9-9-9-------------------------------------|
|----7-7-7--------------------------------------------|


|-----------------------------------------------------|
|-----------------------------------------------------|
|----------------------------7-7-7----6-----6---------|
|------------------11-11-11--------------7-----7------|
|-----------9-9-9-------------------------------------|
|----7-7-7--------------------------------------------|


|-----------------------------------------------------|
|-----------------------------------------------------|
|-------------------------4-4-4----0-----0------------|
|------------------7-7-7--------------4-----4---------|
|-----------5-5-5-------------------------------------|
|----3-3-3--------------------------------------------|


|-----------------------------------------------------|
|-----------------------------------------------------|
|-------------------------4-4-4----0-----0------------|
|------------------7-7-7--------------4-----4---------|
|-----------5-5-5-------------------------------------|
|----3-3-3--------------------------------------------|


And that's about it! Hope you enjoy it!

  Erik
            
Submit corrections

comments powered by Disqus
↑ Back to top | Praxis Tabs for Interworld And The New Innocence. Lyrics for acoustic guitar and electric guitar. 1 Tablatures and chords are parodies/interpretations of the original songs. You may use it for private study, scholarship, research or language learning purposes only