>
 >
Endtime

Endtime Guitar Tabs

Praxis - Endtime chords, tabs, tablatures, lyrics

Guitar lessons | Add/correct | Request | Top 50 tabs Artists:  A B C D E F G H I J K L M N O P Q R S T U V W X Y Z 0-9

Endtime Guitar Tabs – Praxis

CD, Sheet music, Poster

Do you like Endtime? Share with your friends now
Tabs
-------------------------------------------------------------------------------
-------------------------------------------------------------------------------

Tuning: Standard

:00

e|--||-----11--------11---------------7--------7--------------2--------2-------|
B|-o||---------0---------0---------------0--------0--------------0--------0----|
G|--||-----------13---------13--------------9--------9--------------4--------4-|
D|--||-13--------------------------9-----------------------4-------------------|
A|-o||-------------------------------------------------------------------------|
E|--||-------------------------------------------------------------------------|

e|-----4--------4-------||
B|--------0--------0----||o
G|-----------6--------6-||       x3
D|--6-------------------||
A|----------------------||o
E|----------------------||

:30   (I'm not 100% on this... It could be way off)

e|--||-----------------||
B|-o||--------0--------||o
G|--||---------4-------||
D|--||-----6-----6-----||        x4
A|-o||---6---------6---||o
E|--||-4-------------4-||

:49

e|--||-----11--------11---------------7--------7--------------2--------2-------|
B|-o||---------0---------0---------------0--------0--------------0--------0----|
G|--||-----------13---------13--------------9--------9--------------4--------4-|
D|--||-13--------------------------9-----------------------4-------------------|
A|-o||-------------------------------------------------------------------------|
E|--||-------------------------------------------------------------------------|

e|-----4--------4-------||
B|--------0--------0----||o
G|-----------6--------6-||       x5
D|--6-------------------||
A|----------------------||o
E|----------------------||

1:10  -  On the third time through above lick.

e|---------9-9h11---------------9-9h11----14-12-11-9-11--|
B|-9-11-12--------9-----9-11-12--------9-----------------|
G|-------------------------------------------------------|
D|-------------------------------------------------------|
A|-------------------------------------------------------|
E|-------------------------------------------------------|

e|---------9-9h11---------------9-9h11----14-12-11-9-11--|
B|-9-11-12--------9-----9-11-12--------9-----------------|
G|-------------------------------------------------------|
D|-------------------------------------------------------|
A|-------------------------------------------------------|
E|-------------------------------------------------------|

e|---------9-9h11----------------------------------------|
B|-9-11-12--------9-----12-11-9\7/9~~~-------------------|
G|-------------------------------------------------------|
D|-------------------------------------------------------|
A|-------------------------------------------------------|
E|-------------------------------------------------------|

1:39
Rhythm:
e|--||-----------------||
B|-o||--------0--------||o
G|--||---------4-------||
D|--||-----6-----6-----||        x4
A|-o||---6---------6---||o
E|--||-4-------------4-||

Lead:
e|---------------------------------------------------------------------|
B|---------------------------------12-12\11-11\9-9\7/9\7/9---7/9\7/9---|
G|---------------------11-8----/11-------------------------------------|
D|---9~~~~---6------/9-------------------------------------------------|
A|-------------9-6-----------------------------------------------------|
E|---------------------------------------------------------------------|

e|--------11--9\7-9b11-(11)-------9-7h9p7\6--|
B|-----12------------------------------------|
G|--13---------------------------------------|
D|-------------------------------------------|
A|-------------------------------------------|
E|-------------------------------------------|

1:58

e|--||-----11--------11---------------7--------7--------------2--------2-------|
B|-o||---------0---------0---------------0--------0--------------0--------0----|
G|--||-----------13---------13--------------9--------9--------------4--------4-|
D|--||-13--------------------------9-----------------------4-------------------|
A|-o||-------------------------------------------------------------------------|
E|--||-------------------------------------------------------------------------|

e|-----4--------4-------||
B|--------0--------0----||o
G|-----------6--------6-||       x6
D|--6-------------------||
A|----------------------||o
E|----------------------||

2:20  -  On the third time through above lick.

e|---------9-9h11---------------9-9h11----14-12-11-9-11--|
B|-9-11-12--------9-----9-11-12--------9-----------------|
G|-------------------------------------------------------|
D|-------------------------------------------------------|
A|-------------------------------------------------------|
E|-------------------------------------------------------|

e|---------9-9h11---------------9-9h11----14-12-11-9-11--|
B|-9-11-12--------9-----9-11-12--------9-----------------|
G|-------------------------------------------------------|
D|-------------------------------------------------------|
A|-------------------------------------------------------|
E|-------------------------------------------------------|

e|---------9-9h11----------------------------------------|
B|-9-11-12--------9-----12-11-9\7/9~~~-------------------|
G|-------------------------------------------------------|
D|-------------------------------------------------------|
A|-------------------------------------------------------|
E|-------------------------------------------------------|

2:49  -  On 6th time through Intro lick.
                                   Not 100% on this part either  v v
e|-----------------------------------------------------------------|
B|--9-7-9-------9-7-9------9-11/14-12-11~~-------------------------|
G|--------8---8-------6-------------------8-6/8\6-4/6\4-3/4\3------|
D|------------------------------------------------------------4/6--|
A|------------------------------------------4/6\4-2/4\2-1/2\1------|
E|-----------------------------------------------------------------|

2:58
Rhythm:
e|--||-----------------||
B|-o||--------0--------||o
G|--||---------4-------||
D|--||-----6-----6-----||        x4
A|-o||---6---------6---||o
E|--||-4-------------4-||

Lead:
e|---------------------------------------------------------------------|
B|---------------------------------12-12\11-11\9-9\7/9\7/9---7/9\7/9---|
G|---------------------11-8----/11-------------------------------------|
D|---9~~~~---6------/9-------------------------------------------------|
A|-------------9-6-----------------------------------------------------|
E|---------------------------------------------------------------------|

e|--------11--9\7-9b11-(11)-------9-7h9p7\6--|
B|-----12------------------------------------|
G|--13---------------------------------------|
D|-------------------------------------------|
A|-------------------------------------------|
E|-------------------------------------------|

3:18

e|--||-----11--------11---------------7--------7--------------2--------2-------|
B|-o||---------0---------0---------------0--------0--------------0--------0----|
G|--||-----------13---------13--------------9--------9--------------4--------4-|
D|--||-13--------------------------9-----------------------4-------------------|
A|-o||-------------------------------------------------------------------------|
E|--||-------------------------------------------------------------------------|

e|-----4--------4-------||
B|--------0--------0----||o
G|-----------6--------6-||       (to end)
D|--6-------------------||
A|----------------------||o
E|----------------------||

3:29  -  With Distortion

e|----------9-9h11-9--14-12-11\9-9-----11h12-9---|
B|--9-11-12--------------------------------------|
G|-----------------------------------------------|
D|-----------------------------------------------|
A|-----------------------------------------------|
E|-----------------------------------------------|

e|----------9-9h11-9--14-12-11\9-9---14--/16-16~~|
B|--9-11-12--------------------------------------|
G|-----------------------------------------------|
D|-----------------------------------------------|
A|-----------------------------------------------|
E|-----------------------------------------------|

The rest shouldn't be too bad.

************************************

| /   slide up
| \   slide down
| h   hammer-on
| p   pull-off
| ~   vibrato
| +   harmonic
| x   Mute note
| b   Bend
| pb  Pre-bend
| br  Bend release
| pbr Pre-bend release
| brb Bend release bend

************************************





Comments


Popular Praxis tabs & chords
Galaxies Bass Tabs
Animal Behaviour Tabs
Animal Behaviour 1 Tabs
Interworld And The New Innocence Intro Tabs
Track Tabs
Track4 Tabs
Track7 Tabs
Wake The Dead Tabs
Wake The Dead 1 Tabs


Song lyrics



↑ Back to top | Tablatures and chords are parodies/interpretations of the original songs. You may use it for private study, scholarship, research or language learning purposes only
© 2014 AZChords.com Contact us | Privacy policy | DMCA | Add/correct tabs | Request tabs | Top 50 tabs