» » »

Praise And Worship, Ikaw Ang Ilaw Tabs (ver.1)

Artists:  A B C D E F G H I J K L M N O P Q R S T U V W X Y Z # 

Ikaw Ang Ilaw Tabs (ver.1)

Praise And Worship Tabs
 Rating:
4/5 (4 votes)
Ikaw Ang Ilaw lessons Tabs too difficult? Try these video lessons and learn fast
1
                # interpretation of the song. You may only use this file  #
#      for private study, scholarship, or research.       #

Song Title:     Ikaw Ang Ilaw
Album Title:    Sa Dios Magtitiwala


Intro:

  A-F#m-D-E  A-F#m-D-E   A             F#m
  (Keys)     (Bass)     Guitar
e|----------|----------|------7-9-----------7-9------|
B|----------|----------|-9/10-----10~--9/10-----10~--|
G|----------|----------|-----------------------------|
D|----------|----------|-----------------------------|
A|----------|----------|-----------------------------|
E|----------|----------|-----------------------------|

   D        E             F#m
          .                      .        (keys)
e|------7-9-10-9-7-----------------------|-----------|
B|-9/10----------------------------------|-----------|
G|-----------------9b(11)r(9)----9--9~~~-|-----------|
D|---------------------------------------|-----------|
A|---------------------------------------|-----------|
E|---------------------------------------|-----------|


Verse 1:
A                 F#m
Naglalakad ng mag-isa
     D                E
Di malaman ang patutunguhan
A               F#m
Araw ko'y lumulubog
        D                E
Sabay nitong 'tirang pag-asa


Pre-chorus 1:
       D         E
Di magawang magpatuloy pa
           D          E
Pagkat pag-asa ko'y wala na
        F#m      D
Ngunit Ikaw ang ilaw
                 E
Na Siyang tumanglaw


Chorus:
            A
Binigyang liwanag
              F#m
Buhay kong nagdidilim
          A
Ikaw ang ilaw
                   F#m
Na sa puso ko'y nagniningning

Oh Diyos
D               E
Ikaw, Ikaw ang ilaw
         F#m
Ikaw ang ilaw


Verse 2: (Do chords of Verse 1)
Sa paglalakad sa dilim
                            (with riff 1)
Liwanag Mo ang Siyang kailangan
Tanglaw ko sa aking landas
Yung Salitang makapangyarihan


Pre-chorus 2: (Do chords of Pre-chorus 1)
Di matatakot landas man ay madilim
Diyos gabay ka at ako'y Iyong pansin
Ingatan Mo lagi ako
Hanggang sa huling


-Repeat Chorus-


Solo:
         D                                                   E
                                                 .   .  .  .
e|-------12---------14-------14-------14--------14--14-16-17-19~-|
B|-12/14-----17b(19)--17b(19)--17b(19)---17b(19)-----------------|
G|---------------------------------------------------------------|
D|---------------------------------------------------------------|
A|---------------------------------------------------------------|
E|---------------------------------------------------------------|

                                      D

E|-17-19b(21)rb(21)--17-19b(21)rb(21)-17h19p17p16----17~-|
B|-----------------------------------------------19~-----|
G|-------------------------------------------------------|
D|-------------------------------------------------------|
A|-------------------------------------------------------|
E|-------------------------------------------------------|

                       E

E|-------------------------------------------------------------|
B|--------------------------------------------------14-15-17~~-|
G|-16b(18)r-b(18)r-b(18)-------------------13-14-16------------|
D|--------------------------------12-14-16---------------------|
A|-----------------------12-14-16------------------------------|
E|-------------------------------------------------------------|


Bridge:
        F#m      D
(with Riff 2)
Ingatan Mo lagi ako
               E
Hanggang sa huling


-Repeat Chorus 2x (except last line)-


Ending:
         F#m  A             (with Ending riff)
Ikaw ang ilaw   (Repeat 6x)


-----------------------------
Riff 1:
           .         let ring
e|------------------------|
B|-9b(11)r(9)-------------|
G|------------9b(11)r(9)~-|
D|------------------------|
A|------------------------|
E|------------------------|


Riff 2:
                  let ring
e|-21-19-17----19b(21)--|
B|----------------------|
G|----------------------|
D|----------------------|
A|----------------------|
E|----------------------|


Ending Riff:
   A             F#m

e|------7-9-----------7-9-----------7-9-|
B|-9/10-----10~--9/10-----10~--9/10-----|
G|--------------------------------------|
D|--------------------------------------|
A|--------------------------------------|
E|--------------------------------------|

  D           E                        A
  AH--------------------------------------------|
e|10-9-7-9--7---7-------------------------------|
B|------------10-10--9-10-9--7--7h9--9/10~~~----|
G|----------------------------------------------|
D|----------------------------------------------|
A|----------------------------------------------|
E|----------------------------------------------|


*Legend:

h - hammer-on
p - pull-off
b - bend
r - release
~ - vibrato
. - rest
AH- artificial harmonic

_____________________________________________________
            
Submit corrections

comments powered by Disqus
↑ Back to top | Praise And Worship Tabs for Ikaw Ang Ilaw. Lyrics for acoustic guitar and electric guitar. 1 Tablatures and chords are parodies/interpretations of the original songs. You may use it for private study, scholarship, research or language learning purposes only