» » »

Dalangin Tabs (ver.1)

Artists:  A B C D E F G H I J K L M N O P Q R S T U V W X Y Z # 

Dalangin Tabs (ver.1)

Praise And Worship
Rating:
0/5 (0 votes)

Hard to play? Try these video lessons and learn fast.
                # interpretation of the song. You may only use this file  #
#      for private study, scholarship, or research.       #

Song Title:     Dalangin
Album Title:    Sa Dios Magtitiwala


Intro: A–Asus (4x)

Verse 1:
A                 E
Nanlulumo yaring puso
F#m                  C#m
Alam ko’ng nababatid Mo
D         A D       E
Ang kabiguan ay matamo


Verse 2:
A                  E
Kalakasan ay kailangan
F#m                  C#m
Ito’y nanggagaling sa’yo
D            A  D       E
Ang kalungkuta’y pawiin Mo


Chorus:
    A              Bm
Oh Dios tanging sandigan
   D            E
Pagbangon at pagbasak ko’y
A          E
Iyong alam
   A                 Bm
Dinggin ang aking dalangin
  D         A   E            F#m – E – D
Puso’y kandiliin ako’y palakasin


-Repeat all-

-Repeat Chorus’ last line-


Interlude:
A – G#m – F#m – C#m – D – E


Bridge:
D             A   D
Dios tanging Ikaw
             A  D
Ang nakakaunawa
          E   A  (Interlude)
Sa’king kalagayan
D       A  D
Na ang iba
        E   A
Ako’y talikuran


Solo:
   A             Bm             D           E
e|-----------------------------------------------|
B|-17~--17-15-14-14-15~---12-14-15-14-12---------|
G|---------------------------------------14-13~--|
D|-----------------------------------------------|
A|-----------------------------------------------|
E|-----------------------------------------------|

             A           E7
e|--------------12---------------------------|
B|-------12--15----14~------------14--17b19--|
G|-13-14--------------------14-16------------|
D|----------------------/14------------------|
A|-------------------------------------------|
E|-------------------------------------------|

   A             Bm             D     E
e|---------------------------------14-12--|
B|-17~--17-15-14-14-15~---12-14-15--------|
G|----------------------------------------|
D|----------------------------------------|
A|----------------------------------------|
E|----------------------------------------|

         D     E         D     E        A
e|----------17-16-----------21-19~---17-17--|
B|-12-14-15--------12-14-15-----------------|
G|------------------------------------------|
D|------------------------------------------|
A|------------------------------------------|
E|------------------------------------------|


-Repeat Chorus-

-Repeat Chorus’ last line-


Ending: (Do chords of Intro)
Ohh... ahh...
Ako'y palakasin
Ohh... ahh...
Ako'y palakasin


*Legend:

h - hammer-on
p - pull-off
b - bend
r - release
~ - vibrato


_____________________________________________________
            
Hard to play? Try these video lessons and learn fast. | Correct




comments powered by Disqus
↑ Back to top | Tablatures and chords are parodies/interpretations of the original songs. You may use it for private study, scholarship, research or language learning purposes only