» » »

Power Quest, The Message Tabs (ver.1)

Artists:  A B C D E F G H I J K L M N O P Q R S T U V W X Y Z # 

The Message Tabs (ver.1)

Power Quest Tabs
 Rating:
4/5 (4 votes)
The Message lessons Tabs too difficult? Try these video lessons and learn fast
1
                (Intro)
Piano (keyboards)


              E   E   E   E   E   E   E   E      E   E   E   E   E   E   E   E   
E||-------|--12------10------12------10------|--12------10------15--14--12--10--|
B||-------|------12------12------12------12--|------12------12------------------|
G||-------|----------------------------------|----------------------------------|
D||-------|----------------------------------|----------------------------------|
A||-------|----------------------------------|----------------------------------|
E||-------|----------------------------------|----------------------------------|
B||-------|---5------------------------------|---L------------------------------|


   E   E   E   E   E   E   E   E      E   E   E   E   E   E   E   E   
--12------10------12------10------|--12------10------15--14--12--10--|
------12------12------12------12--|------12------12------------------|
----------------------------------|----------------------------------|
----------------------------------|----------------------------------|
----------------------------------|----------------------------------|
----------------------------------|----------------------------------|
---5------------------------------|---L------------------------------|


   E   E   E   E   E   E   E   E      E   E   E   E   E   E   E   E   
--12------10------12------10------|--12------10------15--14--12--10--|
------12------12------12------12--|------12------12------------------|
----------------------------------|----------------------------------|
----------------------------------|----------------------------------|
----------------------------------|----------------------------------|
----------------------------------|----------------------------------|
---1------------------------------|---L------------------------------|


   E   E   E   E   E   E   E   E      E   E   E   E   E   E   E   E   
--12------10------12------10------|--12------10------15--14--12--10--|
------12------12------12------12--|------12------12------------------|
----------------------------------|----------------------------------|
----------------------------------|----------------------------------|
---0------------------------------|---L------------------------------|
----------------------------------|----------------------------------|
----------------------------------|----------------------------------|


   E   E   E   E   E   E   E   E      E   E   E   E   E   E   E   E   
--12------10------12------10------|--12------10------15--14--12--10--|
------12------12------12------12--|------12------12------------------|
----------------------------------|----------------------------------|
----------------------------------|----------------------------------|
----------------------------------|----------------------------------|
----------------------------------|----------------------------------|
---5------------------------------|---L------------------------------|


   E   E   E   E   E   E   E   E      E   E   E   E   E   E   E   E   
--12------10------12------10------|--12------10------15--14--12--10--|
------12------12------12------12--|------12------12------------------|
----------------------------------|----------------------------------|
----------------------------------|----------------------------------|
----------------------------------|----------------------------------|
----------------------------------|----------------------------------|
---5------------------------------|---L------------------------------|


   E   E   E   E   E   E   E   E      E   E   E   E   E   E   E   E   
--12------10------12------10------|--12------10------15--14--12--10--|
------12------12------12------12--|------12------12------------------|
----------------------------------|----------------------------------|
----------------------------------|----------------------------------|
----------------------------------|----------------------------------|
----------------------------------|----------------------------------|
---1------------------------------|---L------------------------------|


   E   E   E   E   E   E   E   E      E   E   E   E   E   E   E   E   
--12------10------12------10------|--12------10------12------10------|
------12------12------12------12--|------12------12------12------12--|
----------------------------------|----------------------------------|
----------------------------------|----------------------------------|
---0------------------------------|---2------------------------------|
----------------------------------|----------------------------------|
----------------------------------|----------------------------------|


   E   E   E   E   E   E   E   E      E   E   E   E   E   E   E   E   
--12------10------12------10------|--15--14--12--10------------------|
------12------12------12------12--|------------------13--12--10------|
----------------------------------|------------------------------12--|
----------------------------------|----------------------------------|
---3------------------------------|---5------------------------------|
----------------------------------|----------------------------------|
----------------------------------|----------------------------------|

                                   Verse 1 starts here  

   E   E   E   E   E   E   E   E      E   E   E   Q     E   Q       W                 
--15--14--12--10------------------|------------------------10----|--L----------------|
------------------13--12--10------|----------12------------------|-------------------|
------------------------------12--|------12------11--------------|-------------------|
----------------------------------|--14----------------14--------|-------------------|
---L------------------------------|------------------------------|-------------------|
----------------------------------|---0--------------------------|--L----------------|
----------------------------------|------------------------------|-------------------|



Lead Guitar (Acoustic)

     H        E  E.  E.     W                   E  Q    E  S  S  S E.  E.   
E||----------------------|-------------------|-----------------------------|
B||--------------8---7---|--5----------------|--L--8----7--7h-8p-7-5---7---|
G||----------------------|-------------------|-----------------------------|
D||----------------------|-------------------|-----------------------------|
A||----------------------|-------------------|-----------------------------|
E||----------------------|-------------------|-----------------------------|


  |--3--|                                                                          
  S  S  S H.           E     Q.     T T T T  E  S E  S E      H.           E  S S  
--------------------------|---------------7-10----7----8--|--10------------L--8-7-|
--7h-8p-7-5------------L--|--L------L---8-----------------|-----------------------|
--------------------------|-----------9-------------------|-----------------------|
--------------------------|-------------------------------|-----------------------|
--------------------------|-------------------------------|-----------------------|
--------------------------|-------------------------------|-----------------------|


   H        E    E.   E.        W                   E   T T T T E  E  E  E  E  E   
--------------------------|----------------------|--------------------------------|
--10--------L--7g8---10---|--8g10----------------|--L--10-8-7-5-------------------|
--------------------------|----------------------|--------------7--5--4--2--0-----|
--------------------------|----------------------|-----------------------------4--|
--------------------------|----------------------|--------------------------------|
--------------------------|----------------------|--------------------------------|


  |--3--|  |--3--|  |--3--|   |---3--|          |--3--|  |---3--|  |--3--|
  E  E  E  E  E  E  E  E  E   E  E   E     Q    E  E  E  E   E  E  E  E  E     H        E  E.  E.
---------------------------------7--10--|--8-----------------------------8--|--7--------L--------|
-----------------------7--8--10---------|-----------------------------8-----|--------------7---8-|
-----------------7--9-------------------|-----------------------7--9--------|--------------------|
--------7--9--7-------------------------|-------------7--9--10--------------|--------------------|
--7--9----------------------------------|-------7--9------------------------|--------------------|
----------------------------------------|-----------------------------------|--------------------|


  E  S E  S E  E  S E  S E     E.  E  S E  H           E    E.  E.  E    E.  E.   
--7----7----7--5----3----2--|--2---3----3--3--------|--L-------------------------|
--8----8----8--7----5----3--|--3---5----5--5--------|--L--5g7---8---7--5g7---8---|
----------------------------|-----------------------|----------------------------|
----------------------------|-----------------------|----------------------------|
----------------------------|-----------------------|----------------------------|
----------------------------|-----------------------|----------------------------|


                            NH                                                                    
  W                   E     E  E   E  E  E  E  E     W                   E  E  E  E  E.   E.  E   
-------------------|------------------------------|-------------------|-----------------------8--|
--5----------------|--L--<>12-----10--8--7--------|-------------------|-----------8--7---10------|
-------------------|------------------------9--7--|-------------------|--------9-----------------|
-------------------|------------------------------|--9----------------|-----9--------------------|
-------------------|------------------------------|-------------------|--7-----------------------|
-------------------|------------------------------|-------------------|--------------------------|


                    |--3--|                                                  
  E  E  E  E  E  E  S  S  S E     W                                          
--7----------------------------|-------------------|-------||
-----8--7----------------------|-------------------|-------||
-----------9--7----------------|-------------------|-------||
-----------------9--7h-9p-7-5--|-------------------|-------||
-------------------------------|--7----------------|-------||
-------------------------------|-------------------|-------||




Duration Legend
---------------
W - whole
H - half
Q - quarter
E - 8th
S - 16th
T - 32nd
X - 64th
. - note dotted
|-n-|  - n-tuplets


Tablature Legend
----------------
L - tied note
x - dead note
g - grace note
(n) - ghost note
> - accentuded note
NH - natural harmonic
AH - artificial harmonic
TH - tapped harmonic
SH - semi harmonic
PH - pitch harmonic
h - hammer on
p - pull off
b - bend
br - bendRelease
pb - preBend
pbr - preBendRelease
brb - bendReleaseBend
\n/ - tremolo bar dip
\n - tremolo bar dive
-/n - tremolo bar Release up
/n\ - tremolo bar inverted dip
/n - tremolo bar return
-\n - tremolo bar Release down
S - shift slide
s - legato slide
/ -  slide into from below or out of upwards
\ -  slide into from above or out of downwards
~ - vibrato
W - wide vibrato
tr - trill
TP - tremolo picking
T - tapping
S - slap
P - pop
< - fade in
^ - brush up
v - brush down
            
Submit corrections

comments powered by Disqus
↑ Back to top | Power Quest Tabs for The Message. Lyrics for acoustic guitar and electric guitar. 1 Tablatures and chords are parodies/interpretations of the original songs. You may use it for private study, scholarship, research or language learning purposes only