» » »

When Worlds Collide Tabs (ver.2)

Artists:  A B C D E F G H I J K L M N O P Q R S T U V W X Y Z # 

When Worlds Collide Tabs (ver.2)

Powerman 5000
Rating:
4/5 (5 votes)

Tabs too difficult? Try these video lessons and learn fast.
                Band: Powerman 5000
Tuning: Tune down half step
        (Low to High)Eb Ab Db Gb Bb Eb)

Intro 
Synth arranged for gtr.
eb|-12--------------|-10--------------|-12--------------|-10--------------|
Bb|--x--------------|--x--------------|--x--------------|--x--------------|
Gb|--9--------------|--7--------------|--9--------------|--7--------------|
Db|-----------------|-----------------|-----------------|-----------------|
Ab|-----------------|-----------------|-----------------|-----------------|
Eb|-----------------|-----------------|-----------------|-----------------|

eb|-9---------------|-8---------------|
Bb|-x---------------|-x---------------|
Gb|-6---------------|-5---------------|
Db|-----------------|-----------------|
Ab|-----------------|-----------------|
Eb|-----------------|-----------------|


Verse Pt1
                   x3
eb|-----------------|----------------|
Bb|-----------------|----------------|
Gb|-----------------|----------------|
Db|-----------------|----------------|
Ab|---4-4-4-4-------|----------------|
Eb|-----------3---3-|--3---3-1-3---3-|

eb|-----------------|----------------|
Bb|-----------------|----------------|
Gb|-----------------|----------------|
Db|-----------------|----------------|
Ab|---4-4-4-4-------|----------------|
Eb|-----------3---3\|----------------|

Verse Pt2
eb|-----------------|
Bb|-----------------|
Gb|---6-6-6-6-------|
Db|---5-5-5-5-------|x4
Ab|---4-4-4-4-------|
Eb|-----------3-----|

eb|-----------------|--------------|
Bb|-----------------|--------------|
Gb|---6-6-6-6-------|--------------|
Db|---5-5-5-5-------|--------------|
Ab|---4-4-4-4-------|----5-3-5-3-5-| 
Eb|-----------3-----|----3-1-3-1-3-|


Chorus PLay all Twice             
eb|-----------------|-----------------|-----------------|-----------------|
Bb|-----------------|-----------------|-----------------|-----------------|
Gb|-----------------|-----------------|-----------------|-----------------|
Db|-----------------|-----------------|-----------------|-----------------|
Ab|---5---5-3-5-3-5-|---5---5-3-5-3-5-|---5---5-3-5-3-5-|---5---5-3-5-8---|
Eb|---3---3-1-3-1-3-|---3---3-1-3-1-3-|---3---3-1-3-1-3-|---3---3-1-3-6---|


Verse pt2 x2

Chorus


Interlude                     x3
eb|----------------|------------------| |-----------------|----------------|
Bb|----------------|------------------| |-----------------|----------------|
Gb|----------------|------------------| |-----------------|----------------|
Db|----------------|------------------| |-----------------|----------------|
Ab|-7-7-7-7--------|-5-5-5-5----------| |-4-4-4-4---------|-3-3-3-3--------|
Eb|----------------|------------------| |-----------------|----------------|
    * * * *          * * * *              * * * *           * * * * 

Verse 3                   Just Bass
eb|-----------------|  |---------------|  |------------------|
Bb|-----------------|  |---------------|  |------------------|
Gb|-----------------|  |---------------|  |------------------|
Db|-----------------|x4|---------------|x3|----------3---5---|
Ab|---4-4-4-4-------|  |---------------|  |--------4---4-----|
Eb|-----------3-----|  |---------------|  |------------------|

Verse pt2

Chorus x4  


Outro Chorus x2
e|-------------------------|-------------------------|
B|-------------------------|-------------------------|
G|-------------------------|-------------------------|
D|-------------------------|-------------------------|
A|-11-11-11-11-11-11-11-11-|-10-10-10-10-10-10-10-10-|
E|-9--9--9--9--9--9--9--9--|-8--8--8--8--8--8--8--8--|

Eb|-----------------|-----------------|
Bb|-----------------|-----------------|
Gb|-----------------|-----------------|
Db|-----------------|-----------------|
Ab|---5---5-3-5-3-5-|---5---5-3-5-8---|
Eb|---3---3-1-3-1-3-|---3---3-1-3-6---|


| *  Palm Mute
| /  slide up
| \  slide down
| h  hammer-on
| p  pull-off
| ~  vibrato
| +  harmonic
| x  Mute note
==============================================================
            
Tabs too difficult? Try these video lessons and learn fast.


comments powered by Disqus
↑ Back to top | Tablatures and chords are parodies/interpretations of the original songs. You may use it for private study, scholarship, research or language learning purposes only