» » »

Powerman 5000, Wake Up Bass tabs (ver.2)

Artists:  A B C D E F G H I J K L M N O P Q R S T U V W X Y Z # 

Wake Up Bass tabs (ver.2)

Powerman 5000 Tabs
 Rating:
4/5 (4 votes)
Wake Up lessons Tabs too difficult? Try these video lessons and learn fast
1
                '/' and '\' = slide
'~' = hold note

Intro:
-------      --------|
------- x8   --------|
-------      --------|
-0---0-      -0/12\0-|

Chorus:
---------------------------------------------------------------------|
---------------------------------------------------------------------| x2
---------------------------------------------------------------------|
-0---0---6-6-0-6---0-0-0-3---5---0---0---12-0-0-12-0-0-12-0-0-12-12--|

Verse:
--------------------------------------------------------------|
--------------------------------------------------------------| x2
--------------------------------------------------------------|
-0~~~~~~~~~~~~~~~3~~~~~~~~~~~~~~~5~~~~~~~~~~~6~~~0~~~~~~~~~~~~

-----------------------------------------------------------------|
-----------------------------------------------------------------|
-----------------------------------------------------------------|
-0-0-0-0-0-0-0-0-3-3-3-3-3-3-3-3-5-5-5-5-5-5-5-6-0-0-0-0-0-0-0-0-|

----------------------------------------------------------------|
----------------------------------------------------------------|
----------------------------------------------------------------|
-0-0-0-0-0-0-0-0-3-3-3-3-3-3-3-3-5-5-5-5-5-5-5-6-0~~~~~3~~~~~5--|


Chorus x2
Verse

Bridge:
-----------------------------------|
-----------------------------------| x4
-----------------------------------|
-0-12-0-0-3-0-0-5-0-0-0-0-5-3-5-3--|

NOTE: the first F and G of the bridge (3 and 5) can be played an octave higher.  That 
you can play it as -0-12-0-0-15-0-0-17-.  But I think it sounds better playing those two 
an octave lower as it adds to the lower, heavier sound.

Rest until 2:36

Chorus x2
            
Submit corrections

comments powered by Disqus
↑ Back to top | Powerman 5000 Bass for Wake Up. Lyrics for acoustic guitar and electric guitar. 1 Tablatures and chords are parodies/interpretations of the original songs. You may use it for private study, scholarship, research or language learning purposes only