>
 >
Ultra Mega 1

Ultra Mega 1 Guitar Tabs

Powerman 5000 - Ultra Mega 1 chords, tabs, tablatures, lyrics

Guitar lessons | Add/correct | Request | Top 50 tabs Artists:  A B C D E F G H I J K L M N O P Q R S T U V W X Y Z 0-9

Ultra Mega 1 Guitar Tabs – Powerman 5000

CD, Sheet music, Poster

Do you like Ultra Mega 1? Share with your friends now
TabsTabs v2
Ultra Mega(Single)- Powerman 5000
Total Time: 3:33

Drop D flat tuning            Symbols:
Db Ab Db Gb Bb eb               < > = harmonic
                                 // = slide up/down
Intro                             x = mute
eb|-----------------------|       . = palm mute
Bb|-----------------------|       w = wah
Gb|-----------------------|       ~ = let ring/ghost note( )
Db|-----------------------|       ^ = full bend
Ab|-----------------------|      br = bend realease
Db|-----<4>--//--<8>------|
   (Play each harmonic x10) 

Pre-verse/Chorus
eb|-------------------------------------|
Bb|-------------------------------------|
Gb|-------------------------------------|
Db|-----2-2--x5-2---2-0-2---5/7777-----|
Ab|-----2-2--x5-2---2-0-2---5/7777-----|
Db|-----2-2--x5-2---2-0-2---5/7777-----|
                               
			   Db|-------| Played under 7s
			   Ab|-------|
			   Db|--<8>--| x4

Verse
eb|------------------------|  |-------------------------|  |------------|
Bb|------------------------|  |-------------------------|  |------------|
Gb|------------------------|  |-------------------------|  |------------|
Db|------------------------|  |-------------------6--2--|  |-2~---------|
Ab|-2-22--2-22--2-22--2-22-|  |-2-22--2-22--2-22--6--2--|  |-2~---------|
Db|-2-22-2-22-2-22-2-22-|  |-2-22--2-22--2-22--6--2--|  |-2~-6p5h6p5-|
    . ..  . ..  . ..  . ..      . ..  . ..  . ..           4th time only

Gradually softer, re-create w/ volume tone on guitar

Power Riff
eb|--------------------------------------|	|-------------------| |---|
Bb|--------------------------------------|	|-------------------| |---|
Gb|--------7^-------6^-------5^-------4^-|	|---------------7~~-| |-7-|
Db|--2-222-7^-2-222-6^-2-222-5^-2-222-4^-|	|-2-5/6\5/6\5-2-7~~-| |-7-|
Ab|--2-222-7^-2-222-6^-2-222-5^-2-222-4^-|	|-2-5/6\5/6\5-2-----| |---|
Db|--2-222----2-222----2-222----2-222----|	|-2-5/6\5/6\5-2-----| |---|
        .. w     .. w     .. w     .. w                       w
                                              3rd time only
Outro
eb|-------------------|
Bb|-------------------|
Gb|--2-5/6\5/6\5-2---|
Db|-------------------|
Ab|-------------------|
Db|-------------------|

Song Order:
Intro x1 
Pre-verse x4
Pre-verse x4 w/ lyrics
Verse x4
Chorus x4
Verse x4
Chorus x4
Power Riff x3
Verse x4
Chorus x8
Power Riff x3
Outro x 1





Comments


Popular Powerman 5000 tabs & chords
Public Menace, Freak, Human Fly Bass Tabs
Standing 8 Bass Tabs
Supernova 2 Bass Tabs
The Matrix Theme Bass Tabs
Free Tabs
Free 1 Tabs
Super Villain 1 Tabs
That's Entertainment Tabs
Ultra Mega Tabs
Wild World Tabs


Song lyrics



↑ Back to top | Tablatures and chords are parodies/interpretations of the original songs. You may use it for private study, scholarship, research or language learning purposes only
© 2014 AZChords.com Contact us | Privacy policy | DMCA | Add/correct tabs | Request tabs | Top 50 tabs