» » »

That's Entertainment Tabs (ver.1)

Artists:  A B C D E F G H I J K L M N O P Q R S T U V W X Y Z # 

That's Entertainment Tabs (ver.1)

Powerman 5000
Rating:
0/5 (0 votes)

Hard to play? Try these video lessons and learn fast.
                That's Entertainment!

All right, this song is really easy, and I really only 
Anyway it took me only like 5 minutes to do it and i think
it's 100% accurate.  All right cool, have fun with it.

Tuning: Drop D (EBGDAD)

There is no guitar as far as I can tell in the verses
or first part of the intro, and there are only two 
different notes in the chorus/second part of intro,
which makes it a really easy song to play/tab.
In fact, if it wasn't such a good song, I wouldn't waste
my time tabbing or playing it.  But it is a good song, and
I wasn't wasting my time when I decided to tab this song.

Chorus/Second Part of Intro
(the 21 is not twenty-one, it's a two and one put close together)
|---------------------|
|---------------------|
|---------------------| repeat however many times necessary,
|-2---2---2---2-2-21~-| I think it's 4x for the intro and
|-2---2---2---2-2-21~-| choruses 1 and 2 and 8x for chorus 3.
|-2---2---2---2-2-21~-|
PM.   .   .

Bridge
There's a little thing thrown in with some kind of effect
on it, I don't know which one but my best guess at the note is
e|-19-|
B|--x-|
G|-16-|  -it's thrown in before the music really starts up again,
then it gets to the solo, which really isn't hard.
Lead Guitar
|------------------10------------------------------------10~---------|
|--9~----------10~-----10-9~-----------9-9---9---9-9---9-------10~---|
|8------8~---8---------------8~w10w8~-8-8---8---8-8---8-8------------|
|--------------------------------------------------------------------|
|--------------------------------------------------------------------|
|--------------------------------------------------------------------|
Rhythm Guitar (again it's two one, not twenty one)
|------------------|
|------------------|
|------------------| 4x
|-2-2-2-2-2-2-2-21-|
|-2-2-2-2-2-2-2-21-|
|-2---2---2---2--1-|
PM.   .   .   .

Outtro
Guitar 1 plays chorus again 4x
Guitar 2 plays this 4x (two-one not twenty one)
|--------------------------------------------|
|--------------------------------------------|
|--------------------------------------------|
|2---2-2-5~--2---2-2-7~--2---2-2-5~--2-2-21~-|
|2---2-2-5~--2---2-2-7~--2---2-2-5~--2-2-21~-|
|2---2-2-5~--2---2-2-7~--2---2-2-5~--2-2-21~-|

symbols
~   hold note until whenever
PM  palm mute the notes marked by . underneath them
w   use wammy bar to raise/drop pitch of this note to get
    to next note, eg.  8~w10w8 means hold 8, raise with wammy 
    bar until the note sounds like ten, then drop back to 8
            
Hard to play? Try these video lessons and learn fast. | Correct




comments powered by Disqus
↑ Back to top | Tablatures and chords are parodies/interpretations of the original songs. You may use it for private study, scholarship, research or language learning purposes only