» » »

Powerman 5000, Super Villain Tabs (ver.2)

Artists:  A B C D E F G H I J K L M N O P Q R S T U V W X Y Z # 

Super Villain Tabs (ver.2)

Powerman 5000 Tabs
Rating:
0/5 (0 votes)
Super Villain lessons Tabs too difficult? Try these video lessons and learn fast
                Tuning: Drop D (D# A# D# G# B# E#)

Please comment on anything I did wrong as this is my first tab and I did it by ear.

Intro
E|------------------------------|
B|------------------------------|
G|------------------------------|
D|------------------------------|   Play this x4
A|---------------------------7--|
D|--2-0-2--5-2-5--7-5-7--9-7----|

Verse/Main Riff
E|-----------|------------|
B|-----------|------------|
G|-----------|------------|
D|-----------|------------|     Play x8
A|-----4-----|--2-2-2-----|
D|--2---2-0--|--2-2-2-2-0-|


Chorus
E|-----------------|-----------------|--------------------------|
B|-----------------|-----------------|--------------------------|
G|-----------------|-----------------|--------------------------|
D|--2---2--5-2-0-2-|--2---2--7-2-0-2-|--2---2--5-2-0----55577777|  Play x2
A|--2---2--5-2-0-2-|--2---2--7-2-0-2-|--2---2--5-2-0----55577777|  
D|--2---2--5-2-0-2-|--2---2--7-2-0-2-|--2---2--5-2-0----55577777|


Verse/Main Riff
E|-----------|------------|
B|-----------|------------|
G|-----------|------------|
D|-----------|------------|     Play x8
A|-----4-----|--2-2-2-----|
D|--2---2-0--|--2-2-2-2-0-|


Chorus
E|-----------------|-----------------|--------------------------|
B|-----------------|-----------------|--------------------------|
G|-----------------|-----------------|--------------------------|
D|--2---2--5-2-0-2-|--2---2--7-2-0-2-|--2---2--5-2-0----55577777|  Play x2
A|--2---2--5-2-0-2-|--2---2--7-2-0-2-|--2---2--5-2-0----55577777|  
D|--2---2--5-2-0-2-|--2---2--7-2-0-2-|--2---2--5-2-0----55577777|


Bridge
E|--------------------------------------|
B|--------------------------------------|
G|---------2------4----5--4--2--0-------|
D|--5-2------2------2--------------4--2-|    Play x4
A|--------------------------------------|
D|--------------------------------------|


Modified Main Riff
E|-----------|------------|
B|-----------|------------|
G|-----------|------------|
D|-----------|------------|     Play x4
A|-----4-----|------------|
D|--2---2-0--|--------2-0-|

Main Riff
E|-----------|------------|
B|-----------|------------|
G|-----------|------------|
D|-----------|------------|     Play x4
A|-----4-----|--2-2-2-----|
D|--2---2-0--|--2-2-2-2-0-|


Chorus
E|-----------------|-----------------|--------------------------|
B|-----------------|-----------------|--------------------------|
G|-----------------|-----------------|--------------------------|
D|--2---2--5-2-0-2-|--2---2--7-2-0-2-|--2---2--5-2-0----55577777|  Play x2
A|--2---2--5-2-0-2-|--2---2--7-2-0-2-|--2---2--5-2-0----55577777|  
D|--2---2--5-2-0-2-|--2---2--7-2-0-2-|--2---2--5-2-0----55577777|


Modidied Chorus
E|-----------------|-----------------|--------------------------|
B|-----------------|-----------------|--------------------------|
G|-----------------|-----------------|--------------------------|
D|-2-------5-2-0-2-|-2-------7-2-0-2-|-2-------5-2-0----55577777|  Play x2
A|-2-------5-2-0-2-|-2-------7-2-0-2-|-2-------5-2-0----55577777|  
D|-2-2-2-2-5-2-0-2-|-2-2-2-2-7-2-0-2-|-2-2-2-2-5-2-0----55577777|
     p p p           p p p             p p p
                       (p: palm mute)

Main Riff
E|-----------|------------|
B|-----------|------------|
G|-----------|------------|
D|-----------|------------|     Play x8
A|-----4-----|--2-2-2-----|
D|--2---2-0--|--2-2-2-2-0-|


I didn't see a lot of tabs for this song so I decided to make one. Hope it helps.           
              
            

comments powered by Disqus
↑ Back to top | Powerman 5000 Tabs for Super Villain. Lyrics for acoustic guitar and electric guitar. Tablatures and chords are parodies/interpretations of the original songs. You may use it for private study, scholarship, research or language learning purposes only