>
 >
Standing

Standing Bass Tabs

Powerman 5000 - Standing chords, tabs, tablatures, lyrics

Guitar lessons | Add/correct | Request | Top 50 tabs Artists:  A B C D E F G H I J K L M N O P Q R S T U V W X Y Z 0-9

Standing Bass Tabs – Powerman 5000

CD, Sheet music, Poster

Do you like Standing? Share with your friends now
Bass TabsBass Tabs v2Bass Tabs v3
Powerman 5000-standing 8

Intro/verse

Gb|---------------------------------------------------------------------|
Db|--------------5-----7-----------------------5-----7-5----------------|
Ab|--x-------7-----7-----5--3--5h3----------7----7-------7-3--5-3-------|
Eb|-----5-5--------------------------3/5-5------------------------5-3---|

Gb|-----------------------------------------------------------------------------|
Db|-----------2----4-------------------------2-----4-------4------5------6---|
Ab|--------4----4----2--0--2h4-----------4-----4--------------------------------|
Eb|--2-2--------------------------0--2-2--------------2-------3------4--------|

Chorus:

Gb|------------------------------------------------|
Db|------------------------------------------------|
Ab|------------------------------------------------|
Eb|--0-0--0-0--0--0-0--0--0-0--0-0--0-0--0--0-0----|

2nd verse variation:(1:19)

Gb|-------------------------5h7----------------------------------------------|
Db|--------------5------7--------7~~------------5-----7-7-5------------------|
Ab|--x-------7------7------------------------7----7---------7-5--3-5-3-------|
Eb|-----5-5-----------------------------5-5---------------------------5-3----|

Gb|-------------------------------------------------------------------------|
Db|-----------2----4------------------------2-----4-------4------5------6---|
Ab|--------4----4----2--0--2h4-----------4-----4----------------------------|
Eb|--2-2--------------------------0--2-2-------------2-------3------4-------|

Gb|---------------------------------------------------|
Db|-------------5~~--------------------4~~------------|
Ab|---------------------------------------------------|
Eb|----5--5--------------------5--5-------------------|

Gb|-------------------------------------------------------------------------|
Db|-----------2----4------------------------2-----4-------4------5------6---|
Ab|--------4----4----2--0--2h4-----------4-----4----------------------------|
Eb|--2-2--------------------------0--2-2-------------2-------3------4-------|

Interlude:

Gb|---------------------------------------------------|
Db|---------------------------------------------------|
Ab|---7-7--------4-4----------------------------------|
Eb|-----------------------------4-4-------3-3---------|





Comments


Popular Powerman 5000 tabs & chords
Automatic Bass Tabs
Free 3 Bass Tabs
Wake Up 1 Bass Tabs
Bombshell Tabs
Organizized Tabs
Relax Tabs
Relax 1 Tabs
Stereotype Tabs
Super Villain Tabs
When Worlds Collide 2 Tabs


Song lyrics



↑ Back to top | Tablatures and chords are parodies/interpretations of the original songs. You may use it for private study, scholarship, research or language learning purposes only
© 2014 AZChords.com Contact us | Privacy policy | DMCA | Add/correct tabs | Request tabs | Top 50 tabs