» » »

Organizized Tabs (ver.1)

Artists:  A B C D E F G H I J K L M N O P Q R S T U V W X Y Z # 

Organizized Tabs (ver.1)

Powerman 5000
Rating:
0/5 (0 votes)

Tabs too difficult? Try these video lessons and learn fast.
                Powerman 5000-Organizize
Drop D Tuning

Intro and verse with “Filtron” effect or Clean Wah

E-----------------------------------7--
B-----------------------------------7--
G-----------------------------------5--
D---------------------------------------
A---------------------------------------
D----0-9-0-8-0-7-0-6-0-5-4-3------------

Chorus (Dist.)
E-----------------------------------------------------
B-----------------------------------------------------
G-----------------------------------------------------
D---0-9-0-8-0-7-----0-9-0-7-0-6-0-5-0-5-4-3-----------
A---0-9-0-8-0-7-----0-9-0-7-0-6-0-5-0-5-4-3-----------
D---0-9-0-8-0-7-----0-9-0-7-0-6-0-5-0-5-4-3-----------

Bridge (Dist)
E---------------------------
B---------------------------
G---------------------------
D---9-8-7-6---6-5-4-3-------
A---9-8-7-6---6-5-4-3-------
D---9-8-7-6---6-5-4-3-------
            
Tabs too difficult? Try these video lessons and learn fast.




comments powered by Disqus
↑ Back to top | Tablatures and chords are parodies/interpretations of the original songs. You may use it for private study, scholarship, research or language learning purposes only