» » »

Powerman 5000, Hey! That's Right! Tabs (ver.1)

Artists:  A B C D E F G H I J K L M N O P Q R S T U V W X Y Z # 

Hey! That's Right! Tabs (ver.1)

Powerman 5000 Tabs
 Rating:
4/5 (4 votes)
Hey! That's Right! lessons Tabs too difficult? Try these video lessons and learn fast
                Hey, Thats Right!
Powerman 5000

Drop D and down 1/2 Step
(C#, G#, C#, F#, A#, D#)

*Bass Intro*


C#--2-0--x-x--0-2-0---0-2-0---0-2-0-2-0-2-
G#--2-0--x-x--0-2-0---0-2-0---0-2-0-2-0-2-
C#--2-0--x-x--0-2-0---0-2-0---0-2-0-2-0-2-

Guitar #1:
D#--10---9------------10---9---------
A#---/---/---8---10----/---/---10---8-
F#---/---/---/----/----/---/----/---/-
C#---/---/---/----/----/---/----/---/-
G#-----------/----/-------------/---/-
  x2
Guitar #2:
C#--2-0---0-2-0---0-2-0---0-2-0-2-0-2-
G#--2-0---0-2-0---0-2-0---0-2-0-2-0-2-
C#--2-0---0-2-0---0-2-0---0-2-0-2-0-2-
  x2

*Words Begin*
C#--0-2-0---0-2-0---0-2-0---0-2-0-2-0-2-
G#--0-2-0---0-2-0---0-2-0---0-2-0-2-0-2-
C#--0-2-0---0-2-0---0-2-0---0-2-0-2-0-2-
  x2

*Chorus*
Guitar #1:
C#--0-2-0-2-0-2-5---0-2-0-2-0-2-
G#--0-2-0-2-0-2-5---0-2-0-2-0-2-
C#--0-2-0-2-0-2-5---0-2-0-2-0-2-

Just directly at end, Guitar #2:
C#-----
G#--x/-
C#--x/-
  x2 but next time, 
     pick slide down on guitar #2

*Words Begin*
C#--0-2-0---0-2-0---0-2-0---0-2-0-2-0-2-
G#--0-2-0---0-2-0---0-2-0---0-2-0-2-0-2-
C#--0-2-0---0-2-0---0-2-0---0-2-0-2-0-2-
  x2

C#--0-2-0--x-x--0-2-0---0-2-0---0-2-0-2-0-2-
G#--0-2-0--x-x--0-2-0---0-2-0---0-2-0-2-0-2-
C#--0-2-0--x-x--0-2-0---0-2-0---0-2-0-2-0-2-
  x2

*Chorus*
Guitar #1:
C#--0-2-0-2-0-2-5---0-2-0-2-0-2-
G#--0-2-0-2-0-2-5---0-2-0-2-0-2-
C#--0-2-0-2-0-2-5---0-2-0-2-0-2-

Just directly at end, Guitar #2:
C#-----
G#--x/-
C#--x/-
  x2 but next time, 
     pick slide down on guitar #2

D#--------------------------------
A#--/12\--/10\--/8\--/5\--5-5-3---
F#--------------------------------

D#---------------------------
A#--/12\--/10\--/8\--/5\-~5~-
F#---------------------------

D#--------------------------------
A#--/12\--/10\--/8\--/5\--5-5-3---
F#--------------------------------

D#---------------------------
A#--/12\--/10\--/8\--/5\--13-
F#---------------------------


C#--0-2-0--x-x--0-2-0---0-2-0---0-2-0-2-0-2-
G#--0-2-0--x-x--0-2-0---0-2-0---0-2-0-2-0-2-
C#--0-2-0--x-x--0-2-0---0-2-0---0-2-0-2-0-2-
  x2

*Chorus*
Guitar #1:
C#--0-2-0-2-0-2-5---0-2-0-2-0-2-
G#--0-2-0-2-0-2-5---0-2-0-2-0-2-
C#--0-2-0-2-0-2-5---0-2-0-2-0-2-

Just directly at end, Guitar #2:
C#-----
G#--x/-
C#--x/-
  x2 but next time, 
     pick slide down on guitar #2

D#--------------------------------
A#--/12\--/10\--/8\--/5\--5-5-3---
F#--------------------------------

D#---------------------------
A#--/12\--/10\--/8\--/5\-~5~-
F#---------------------------

D#--------------------------------
A#--/12\--/10\--/8\--/5\--5-5-3---
F#--------------------------------

D#---------------------------
A#--/12\--/10\--/8\--/5\--13-
F#---------------------------

Guitar #1:
D#--10---9------------10---9---------
A#---/---/---8---10----/---/---10---8-
F#---/---/---/----/----/---/----/---/-
C#---/---/---/----/----/---/----/---/-
G#-----------/----/-------------/---/-
  x2
Guitar #2:
C#--2-0---0-2-0---0-2-0---0-2-0-2-0-2-
G#--2-0---0-2-0---0-2-0---0-2-0-2-0-2-
C#--2-0---0-2-0---0-2-0---0-2-0-2-0-2-
  x2

On second time, Instead of Guitar #1 
playing last 10 and 8, he plays the 
final 020202 with Guitar #2.
And as you know the /'s under then notes
are tremolo picking; pick as rapidly as 
possible.
            
Submit corrections

comments powered by Disqus
↑ Back to top | Powerman 5000 Tabs for Hey! That's Right!. Lyrics for acoustic guitar and electric guitar. Tablatures and chords are parodies/interpretations of the original songs. You may use it for private study, scholarship, research or language learning purposes only