>
 >
Good Times Roll 2

Good Times Roll 2 Guitar Tabs

Powerman 5000 - Good Times Roll 2 chords, tabs, tablatures, lyrics

Guitar lessons | Add/correct | Request | Top 50 tabs Artists:  A B C D E F G H I J K L M N O P Q R S T U V W X Y Z 0-9

Good Times Roll 2 Guitar Tabs – Powerman 5000

CD, Sheet music, Poster

Do you like Good Times Roll 2? Share with your friends now
TabsTabs v2Tabs v3
 8/99 

 S1: This is a cover song that Powerman 5000 did from a classic song from
 The Cars, just in a heavier version. The song the pretty easy to figure
 out cause its really just repeating its self all at different times. I
 used my own little names for each riff so bear with 'em. Its a really fun
 song to listen to and to play. If anyone has any comments, questions, or
 have fun!, (intro over those crazy beats) 
 e----------------------------------- 
 C----------------------------------- 
 G----------------------------------- 
 D------8---8------------6---6------- (for intro, strum strings upwards) 
 A------8---8------------6---6------- 
 E------6---6------------4---4------- 
 (x's 5) (x's 7) 

 verse 1 
 e---------------------------------------------------------------------------------------------

 C---------------------------------------------------------------------------------------------

 G---------------------------------------------------------------------------------------------

 D-------8--8----8--8----8--8----10--------8--8----8--8----10--10---10-------------------------

 A-------8--8----8--8----8--8----10--------8--8----8--8----10--10---10-------------------------

 E-------6--6----6--6----6--6----8---------6--6----6--6----8---8----8--------------------------



 chorus 
 e---------------------------------------------------------------------------------------------

 C---------------------------------------------------------------------------------------------

 G---------------------------------------------------------------------------------------------

 D------8-8---------------------------4-4--------------------------------8-----6----5----------

 A------8-8---------------------------4-4--------------------------------8-----6----5----------

 E------6-6---------------------------2-2--------------------------------6-----4----3----------

 (around 10 x's) (around 10 x's) 
 ....Good times roll......oh, let the good times roll-oll........LET THE
 GOOD TIMES ROLL! 

 (between verses 1 and 2) 
 e-------------------------------- 
 C-------------------------------- 
 G-------------------------------- 
 D-------8--8------8-------------- 
 A-------8--8------8-------------- 
 E-------6--6------6-------------- 
 (x's 7) (let ring) 

 verse 2 
 e---------------------------------------------------------------------------------------------

 C---------------------------------------------------------------------------------------------

 G---------------------------------------------------------------------------------------------

 D-----8-8---8-8---6-6---6-6---------6~4~------6~4~------6~4~------6~4~------------------------

 A-----8-8---8-8---6-6---6-6----4~6~------4~6~------4~6~------4~6~-----------------------------

 E-----6-6---6-6---4-4---4-4-------------------------------------------------------------------

 repeat 2 x's (use wammy bar when you see: ~ ) 

 -after verse 2 repeat "verse 1 riff" and then "chorus riff" again- 

 after you repeat those riffs do this "between riff 1": 
 e---------------------------------------------------------------------------------------------

 C---------------------------------------------------------------------------------------------

 G---------------------------------------------------------------------------------------------

 D----8-8--------------10----6--------------4-4-----------------8----6----5--------------------

 A----8-8--------------10----6--------------4-4-----------------8----6----5--------------------

 E----6-6--------------8-----4--------------2-2-----------------6----4----3--------------------

 (around 10 x's) (let ring) (around 15 x's) GOOD TIMES ROLL! 

 "between riff 2" 
 e---------------------------------------------------------------------------------------------

 C---------------------------------------------------------------------------------------------

 G---------------------------------------------------------------------------------------------

 D---8-8---8-8---8-8---8-8---8-8---8-8---8-8-----8---------------------------------------------

 A---8-8---8-8---8-8---8-8---8-8---8-8---8-8-----8---------------------------------------------

 E---6-6---6-6---6-6---6-6---6-6---6-6---6-6-----6---------------------------------------------

 (let ring) 

 -for verse 3 just repeat the riffs you would do during and following
 verse 2- 

 -after verse 3 and everything, do the "chorus riff" and "between riff 1"
 till song ends- 



 And thats it!!!! Cool huh? This seems extremly accurate and i hope it
 does good for you. Enjoy and keep rocking. 

 -Nielsen Nacis-





Comments


Popular Powerman 5000 tabs & chords
Free 1 Bass Tabs
Operate, Annihilate Bass Tabs
Standing 2 Bass Tabs
Super Nova Goes Pop Bass Tabs
Supernova Goes Pop Bass Tabs
Heroes And Villains Tabs
Murder Tabs
Supernova Tabs
Tonight The Stars Revolt! Tabs
Wild World Tabs


Song lyrics



↑ Back to top | Tablatures and chords are parodies/interpretations of the original songs. You may use it for private study, scholarship, research or language learning purposes only
© 2014 AZChords.com Contact us | Privacy policy | DMCA | Add/correct tabs | Request tabs | Top 50 tabs