» » »

Powerman 5000, Action Tabs (ver.3)

Artists:  A B C D E F G H I J K L M N O P Q R S T U V W X Y Z # 

Action Tabs (ver.3)

Powerman 5000 Tabs
 Rating:
4/5 (4 votes)
Action lessons Tabs too difficult? Try these video lessons and learn fast
                Powerman 5000
Action
Drop D and down 1/2 step
(C#, G#, C#, F#, A#, D#)

I think its these.  I know its 7, but 10 im still contemplating.
C#--7-7-7-7-7-7-7-7-7-7-7-7-10-10-10-10-
G#--7-7-7-7-7-7-7-7-7-7-7-7-10-10-10-10-
C#--------------------------------------
   x4

C#--7-7-7-7-7-7-7-7-7-7-7-7-12-12-12-12-
G#--7-7-7-7-7-7-7-7-7-7-7-7-12-12-12-12-
C#--7-7-7-7-7-7-7-7-7-7-7-7-12-12-12-12-
   x4

C#--7-7-7-7-7-7-7-7-7-7-7-7-10-10-10-10-
G#--7-7-7-7-7-7-7-7-7-7-7-7-10-10-10-10-
C#--------------------------------------
   x4

*Chorus*
C#--7-7-7-7-7-7-7-7-10-10-10-10-10-10-10-10-
G#--7-7-7-7-7-7-7-7-10-10-10-10-10-10-10-10-
C#--7-7-7-7-7-7-7-7-10-10-10-10-10-10-10-10-

C#--2-2-2-2-2-2-2-2-12-12-12-12-12-12-12-12-
G#--2-2-2-2-2-2-2-2-12-12-12-12-12-12-12-12-
C#--2-2-2-2-2-2-2-2-12-12-12-12-12-12-12-12-
   Both x2 Second time time around, play 7 instead of 12

C#--7-7-7-7-7-7-7-7-7-7-7-7-12-12-12-12-
G#--7-7-7-7-7-7-7-7-7-7-7-7-12-12-12-12-
C#--7-7-7-7-7-7-7-7-7-7-7-7-12-12-12-12-
   x4 

C#--7-7-7-7-7-7-7-7-7-7-7-7-10-10-10-10-
G#--7-7-7-7-7-7-7-7-7-7-7-7-10-10-10-10-
C#--------------------------------------
   x4

*Chorus*
C#--7-7-7-7-7-7-7-7-10-10-10-10-10-10-10-10-
G#--7-7-7-7-7-7-7-7-10-10-10-10-10-10-10-10-
C#--7-7-7-7-7-7-7-7-10-10-10-10-10-10-10-10-

C#--2-2-2-2-2-2-2-2-12-12-12-12-12-12-12-12-
G#--2-2-2-2-2-2-2-2-12-12-12-12-12-12-12-12-
C#--2-2-2-2-2-2-2-2-12-12-12-12-12-12-12-12-
   Both x4 Second time and 4th time around, play 7 instead of 12

C#--7-7-7-8-8-8-10-10-11-11-
G#--7-7-7-8-8-8-10-10-11-11-
C#--7-7-7-8-8-8-10-10-11-11-

C#--12-12-12-13-13-13-15-15-16-16-
G#--12-12-12-13-13-13-15-15-16-16-
C#--12-12-12-13-13-13-15-15-16-16-

C#--2-
G#--2-
C#--2-

Notes inbetween:
C#--4--2--2-3-2-
G#--------------
C#--------------
Play that the 3 times you hear them
Continuous palm muting

Solo


*Chorus*
C#--7-7-7-7-7-7-7-7-10-10-10-10-10-10-10-10-
G#--7-7-7-7-7-7-7-7-10-10-10-10-10-10-10-10-
C#--7-7-7-7-7-7-7-7-10-10-10-10-10-10-10-10-

C#--2-2-2-2-2-2-2-2-12-12-12-12-12-12-12-12-
G#--2-2-2-2-2-2-2-2-12-12-12-12-12-12-12-12-
C#--2-2-2-2-2-2-2-2-12-12-12-12-12-12-12-12-
   Both x4 Second time and 4th time around, play 7 instead of 12

C#--7-7-7-7-7-7-7-7-7-7-7-7-12-12-12-12-
G#--7-7-7-7-7-7-7-7-7-7-7-7-12-12-12-12-
C#--7-7-7-7-7-7-7-7-7-7-7-7-12-12-12-12-
   x4

C#--7-7--5-5-7-7--5-5-7-7--5-5--12--12-
G#--7-7--5-5-7-7--5-5-7-7--5-5--12--12-
C#--7-7--5-5-7-7--5-5-7-7--5-5--12--12-
  Pm     . .      . .      . .
  x4

C#--7-
G#--7-
C#--7-
*end*


Ill post the solo seperately asap.
            
Submit corrections

comments powered by Disqus
↑ Back to top | Powerman 5000 Tabs for Action. Lyrics for acoustic guitar and electric guitar. Tablatures and chords are parodies/interpretations of the original songs. You may use it for private study, scholarship, research or language learning purposes only