>
 >
Action

Action Guitar Tabs

Powerman 5000 - Action chords, tabs, tablatures, lyrics

Guitar lessons | Add/correct | Request | Top 50 tabs Artists:  A B C D E F G H I J K L M N O P Q R S T U V W X Y Z 0-9

Action Guitar Tabs – Powerman 5000

CD, Sheet music, Poster

Do you like Action? Share with your friends now
TabsTabs v2Tabs v3
Intro/Verse
|---------------------------------|
|---------------------------------|
|---------------------X-X-7-7-7-7-|
|-7-7-7-7-7-7-7-7-7-7-X-X-6-6-6-6-|
|-X-X-X-X-X-X-X-X-X-X-X-X-5-5-5-5-|
|-5-5-5-5-5-5-5-5-5-5-X-X---------|


Chorus
|----------------------------------------------
|----------------------------------------------
|----------------------------------------------  
|-7-7-7-7-7-7-7-7-7/10-10-10-10-10-10-10-10-10\
|-7-7-7-7-7-7-7-7-7/10-10-10-10-10-10-10-10-10\
|-5-5-5-5-5-5-5-5-5/8--8--8--8--8--8--8--8--8-\

      --------------------------------|
      --------------------------------|
      --------------------------------| x2
      \3-3-3-3-3-3-3-3-3--5-5--5-5--5-|
      \3-3-3-3-3-3-3-3-3--5-5--5-5--5-|
      \1-1-1-1-1-1-1-1-1--3-3--3-3--3-|


Bridge
|--------------------------|
|--------------------------| 
|--------------------------| x2
|--------------------------|
|-7-7-7-8-8-8--10-10-11-11-|
|-5-5-5-6-6-6--8--8--9--9--|

|--------------------------|
|--------------------------|
|--------------------------| x2
|-7-7-7-8-8-8--10-10-11-11-|
|-5-5-5-6-6-6--8--8--9--9--|
|--------------------------|

Interlude
|-----------------------------------|
|-----------------------------------|
|-----------------------------------| x3
|-----------------------------------|
|-------------------------8*-5*-----|
|-5-8-5-8-5-8-5-8-5-8-5-8-------5-8-|
  . . . . . . . . . . . .

|-15--|
|-17b-|
|-----| x10
|-----|
|-----|
|-----|

|-10p8--10p8--10p8--10p8--10p8--10p8--10p8---0-X-5b-|
|-----10----10----10----10----10----10----10-0-X-5b-|
|---------------------------------------------------| x2
|---------------------------------------------------|
|---------------------------------------------------|
|---------------------------------------------------|

|---------------|
|-5b--7-5-------|
|--------7-5----| x2
|------------5b-|
|---------------|
|---------------|

|-5tp-7tp-10tp-12tp-15tp-17tp-20tp-|
|----------------------------------|
|----------------------------------|
|----------------------------------|
|----------------------------------|
|----------------------------------|

|-20p17--20p17--20p17--20p17--20p17--20p17---20b-|
|------20-----20-----20-----20-----20-----20-----|
|------------------------------------------------|
|------------------------------------------------|
|------------------------------------------------|
|------------------------------------------------|





Comments


Popular Powerman 5000 tabs & chords
Nobody's Real Bass Tabs
Operation Annihilation Bass Tabs
Wake Up 1 Bass Tabs
Bombshell 1 Tabs
Supernova Goes Pop Tabs
Theme To A Fake Revolution Tabs
Ultra Mega 1 Tabs
When Worlds Collide Tabs
When Worlds Collide 4 Tabs
Wild World Tabs


Song lyrics



↑ Back to top | Tablatures and chords are parodies/interpretations of the original songs. You may use it for private study, scholarship, research or language learning purposes only
© 2014 AZChords.com Contact us | Privacy policy | DMCA | Add/correct tabs | Request tabs | Top 50 tabs