» » »

Walking Stick Tabs (ver.1)

Artists:  A B C D E F G H I J K L M N O P Q R S T U V W X Y Z # 

Walking Stick Tabs (ver.1)

Powderfinger
Rating:
0/5 (0 votes)

Hard to play? Try these video lessons and learn fast.
                 
Powderfinger - Walking Stick
Album - Parables for Wooden Ears

 
INTRO: (bass) 
G-|----------------------------------------------|- 
D-|-------9----9--------9----9--------9----9-----|- 
A-|----------------------------------------------|- 
E-|-5/7-7----7----5/7-7----7----5/7-7----7----8~-|- 
 
VERSE RIFF: (slight palm mute) 
E-|------------------------------------------------------------------|- 
B-|------------------------------------------------------------------|- 
G-|-4---4-4-4--4---4-4-4--4---4-4-4--4---4-4-4--4---4-4-4--4---4-4-4-|- 
D-|-4---4-4-4--4---4-4-4--4---4-4-4--4---4-4-4--4---4-4-4--4---4-4-4-|- 
A-|-0h2-2-2-2--0h2-2-2-2--0h2-2-2-2--0h2-2-2-2--0h2-2-2-2--0h2-2-2-2-|- 
E-|------------------------------------------------------------------|- 
 
E-|----------------------|- 
B-|----------------------|- 
G-|----------------------|- 
D-|-5---5-5-5--5---5-5-5-|- 
A-|-5---5-5-5--5---5-5-5-|- 
E-|-0h3-3-3-3--0h3-3-3-3-|- 
 
PRE CHORUS: 
E-|------------------------------|- 
B-|------------------------------|- 
G-|-4--4-4-4-4--4-4-4-4--4-4-4---|- 
D-|-4--4-4-4-4--4-4-4-4--4-4-4-5-|- 
A-|-2--2-2-2-2--2-2-2-2--2-2-2-5-|- 
E-|----------------------------3-|- 
 
CHORUS: 
E-|-----5\3-3-3--------|- 
B-|--------------5h7-5-|- 
G-|--------------------|- 
D-|-2------------------|- 
A-|-2------------------|- 
E-|-0------------------|- 
 
BASS BITS FOR THE SOLO: 
G-|----------------------|- 
D-|----------------------|- 
A-|----------------------|- 
E-|-0--3h5/7--5--3--2--0-|- 
 
G-|------------------------|- 
D-|------------------------|- 
A-|------------------------|- 
E-|-0--3--5--7--5--3--5--3-|- 
 
SOLO (incomplete) 
E-|------------------------|- 
B-|--8~~~--7h8p7~~~--12~~~-|- 
G-|------------------------|- 
D-|------------------------|- 
A-|------------------------|- 
E-|------------------------|- 
 
LAST CHORUS: 
E-|---------------|- 
B-|---------------|- 
G-|----------9--7-|- 
D-|-2---7-5--9--7-|- 
A-|-2---7-5--7--5-|- 
E-|-0---5-3--0----|- 
 
OUTRO: 
E-|---------------------|- 
B-|---------------------|- 
G-|---------------------|- 
D-|-2-2------2-2------2-|- 
A-|-2-2------2-2------2-|- 
E-|-0-0------0-0------0-|- 
            
Hard to play? Try these video lessons and learn fast. | Correct




comments powered by Disqus
↑ Back to top | Tablatures and chords are parodies/interpretations of the original songs. You may use it for private study, scholarship, research or language learning purposes only