» » »

Powderfinger, Thrilloilogy Bass tabs (ver.1)

Artists:  A B C D E F G H I J K L M N O P Q R S T U V W X Y Z # 

Thrilloilogy Bass tabs (ver.1)

Powderfinger Tabs
 Rating:
4/5 (4 votes)
Thrilloilogy lessons Tabs too difficult? Try these video lessons and learn fast
                Bass Tab
Powderfinger
Taken from the album “Odysey Number Five”






Verse
G-------------------------------------------------------
D-------------------------------------------3-3/2------- 
A-7-7-7-7/5-7----7-7-7-7/5-7---7-7-7-7/5-7--------------
E-------------------------------------------------------

G-------------------------------------------------------
D-------------------------------------------5-5/4------- 
A-7-7-7-7/5-7----7-7-7-7/5-7---7-7-7-7/5-7--------------
E-------------------------------------------------------


Bridge 
G-------------------------------------------------------
D----------------------5-5-5-5--------------------------
A--3-3-3-3-3-3-3-3-------------5-5-5-5----------3-3-3-3-
E-------------------------------------------------------

Chorus
G-------------------------------------------------------
D-------------------------------------------------------
A-------------------5-5-5-5-5-5-5-5-7-7-7-7-7-7-7-7-----
E--3-3-3-3-3-3-3-3--------------------------------------

*Drum section*

Weird section..
****
G------------------------------------------------------------
D--------------------------------9--(let ring)---8-7-7-5----- 
A-7--(let ring)----9--(let ring)-------------------------5-7-
E------------------------------------------------------------
****
Improvise this above section, he alters it every measure.

G--------------------------------------------------
D----------------5------4-------------------------- 
A-7------10----------------------------------------
E--------------------------------------------------

Improvisations:

G-----------------------------------------------------------
D-----------------------------------------------------------
A-7------10-----------------------------------10------------
E---------------10-10-12--------7-10-10-12---------10-10-12-

Then alter off between these two
G--------------------------------
D--------------------------------
A-----------------10-------------
E---7-10-10-12---------10-10-12--

Them improvise on the 10th and 12th frets of strings E and A for awhile.
 
There you have it, enjoy. Some of this may be a bit off, but its close, you can figure it out.

-Drew
            
Submit corrections

comments powered by Disqus
↑ Back to top | Powderfinger Bass for Thrilloilogy. Lyrics for acoustic guitar and electric guitar. Tablatures and chords are parodies/interpretations of the original songs. You may use it for private study, scholarship, research or language learning purposes only