» » »

These Days Tabs (ver.2)

Artists:  A B C D E F G H I J K L M N O P Q R S T U V W X Y Z # 

These Days Tabs (ver.2)

Powderfinger
Rating:
0/5 (0 votes)

Hard to play? Try these video lessons and learn fast.
                This song is fairly easy if you know your chords. 
Intro:
e-----------------
b-----------------
g----2------------
d--------4----2--0  x2
a--0--------------
e------2----0----- 


Verses:
these chords are all played in four beats but you can add extra to make it sound better.
e----------2-2-2-2-----------2-2-2-2
b-2-2-2-2--2-2-2-2-----------3-3-3-3
g-2-2-2-2--2-2-2-2--1-1-1-1--2-2-2-2
d-2-2-2-2--4-4-4-4--2-2-2-2---------  x how ever many times it is played 
a----------4-4-4-4--2-2-2-2---------
e----------2-2-2-2------------------

Chorus:
e----------2220-2222--
b-2-22-----2220-3333--
g-2-22-111-2220-2222-1
d-2-22-222-4440------2(x12)     repeat 4x each chorus
a------222-4440------2
e----------2220-------         

Bridge:
e-22-0-22-0--------
b-33-0-33-0-222----
g-44-0-22-0-2221-11
d-44-0------2222-22    x4
a--------------2-22
e------------------ 

Coda is the same as the chorus ecept there's a lead guitarbut that i haven't worked out.

there you have it!
            
Hard to play? Try these video lessons and learn fast. | Correct




comments powered by Disqus
↑ Back to top | Tablatures and chords are parodies/interpretations of the original songs. You may use it for private study, scholarship, research or language learning purposes only