» » »

Powderfinger, These Days Tabs (ver.1)

Artists:  A B C D E F G H I J K L M N O P Q R S T U V W X Y Z # 

These Days Tabs (ver.1)

Powderfinger Tabs
 Rating:
4/5 (4 votes)
These Days lessons Tabs too difficult? Try these video lessons and learn fast
                PROPS GO TO: menno velthuys



KEY

7h9             - hammer
7p9             - pull off
11b12           - 11 bend to 12
11b12b11        - 11 bend to 12 and back to 11
/               - slide up
\               - slide down
            - harmonic
|---|           - a bar
 ~              - vibrato
 X              - block

Most of this tab is relevant to the album version except for the intro

INTRO
On the album its just atmospheric stuff probably done on keyboard but
on the single the bass plays this however many times

e----------------------------------
b----------------------------------
G----------------------------------
D-----7------4------2----0----------
A-----------------------------------
E--5------2------0------------------

VERSE (1:01)

GUITAR 1
e|-0-|-2-|-0-|-2-|--
b|-2-|-2-|-0-|-3-|--
G|-2-|-2-|-1-|-2-|--
D|-2-|-4-|-2-|-0-|-- X1
A|-0-|-4-|-2-|-0-|--
E|---|-2-|-0-|---|--

END VERSE 
GUITAR 1
e--2-2-2-2----
b--3-3-3-3----
G--2-2-2-2----
D--0-0-0-0----
A--0-0-0-0----
E-------------

GUITAR 2 (1:10)
e-------2--------1-------------------
b-------3--------3-------------------
G-----2--------2---2------------------
D---0-----0--3-----------------------
A-----------------------------------
E-----------------------------------

CHORUS (1:13)
GUITAR 1
e|-0-|-0-|-2-|-2-|-0-|-0-|
b|-2-|-0-|-2-|-3-|-0-|-0-|
G|-2-|-1-|-2-|-2-|-1-|-1-|
D|-2-|-2-|-4-|-0-|-2-|-2-| x2
A|-0-|-2-|-4-|---|-2-|-2-|
E|---|-0-|-2-|---|-0-|-0-|

GUITAR 2
Just picking the chords basically
e-----------------------------------------------------
b------2-------0-------2--------3-------5-------5----
G------2-------1-------2------2---2---4---4---4---4--
D----2---2---2---2---4---4--0-------2-------2--------   x2
A--0-------------------------------------------------
E----------0-------2----------------------------------

VERSE and END VERSE again

CHORUS again

SOLO (2:53)

GUITAR 1
e|-2-|-2-|-0-|-0-|--
b|-3-|-3-|-2-|-0-|--
G|-4-|-2-|-2-|-1-|--
D|-4-|-0-|-2-|-2-|-- X4
A|-2-|---|-0-|-2-|--
E|---|---|---|-0-|--

THEN
e--2--2-2-2--2---2--1--1-1-1-1--1--------------
b--3--3-3-3--3---3--3--3-3-3-3--3--------------
G--2--2-2-2--2---2--2--2-2-2-2--2--------------
D--0--0-0-0--0---0--3--3-3-3-3--3-------------
A---------------------------------------------
E---------------------------------------------

GUITAR 2
e----------------------------------
b--5---3--2--3--2~--2~--2--0-------
G----------------------------------
D---------------------------------
A-----------------------------------
E-----------------------------------

e----------------------------------
b--5---3--2--3--2~--2~--2--2-------
G----------------------------------
D---------------------------------
A-----------------------------------
E-----------------------------------

e------5----------7/9--7---5---5---5---------
b--5-7---------------------------------------
G--------------------------------------------
D--------------------------------------------
A--------------------------------------------
E--------------------------------------------

e---------5-----------7/9--7---5---5---5-----
b-5-5-5-7------------------------------------
G--------------------------------------------
D--------------------------------------------
A--------------------------------------------
E--------------------------------------------

e-----------------------------------------
b--5---3--2--3--2---3---2--3--5--3--2-----
G-----------------------------------------
D-----------------------------------------
A-----------------------------------------
E-----------------------------------------

QUIET AGAIN

CHORUS (3:45)

GUITAR 1 SAME 8 TIMES

GUITAR 2
e--/17----
b---------
G---------
D---------
A---------
E---------

then play this 8 times
e-----------------------------------------
b-----------------------------------------
G--10-------9-------10-----7------9-------
D-----------------------------------------    X8
A-----------------------------------------
E-----------------------------------------
            
Submit corrections

comments powered by Disqus
↑ Back to top | Powderfinger Tabs for These Days. Lyrics for acoustic guitar and electric guitar. Tablatures and chords are parodies/interpretations of the original songs. You may use it for private study, scholarship, research or language learning purposes only