» » »

These Days Bass tabs (ver.1)

Artists:  A B C D E F G H I J K L M N O P Q R S T U V W X Y Z # 

These Days Bass tabs (ver.1)

Powderfinger
Rating:
0/5 (0 votes)

Hard to play? Try these video lessons and learn fast.
                
This is a kick-arse song from Powderfinger (go aussies) and its heaps 
easy - the first song I played along to when I got my Bass.
This is my first ever tab so it may not be perfect.  
Standard Tuning (EADG)

Intro 
G-----2----------------------------------------------------------------
D-----------------4------------2------------0--------------------------
A-0--------------------------------------------------------------------
E--------------2------------0------------------------------------------

Verse 1 
G----2-----------------------------2-----------------------------------
D-----------4-------2----0-----------------4------2---0-0-0-0-0-0-0-0--
A-0-----------------------------0--------------------------------------
E--------2-------0----------------------2------0-----------------------

Chorus (version 1)
G-----------------------------------------------------------------
D-------------------------------0-0-0-0---------------------------(x2)
A-0-0-0-0---------------------------------------------------------
E-----------0-0-0-0---2-2-2-2-------------0-0-0-0-0-0-0-0---------

Verse 2 - part one (no drums)
G-----------------------------------------------------------------
D----------------------------------------0------------------------(x2)
A---0-------------------------------------------------------------
E----------------2-----------0------------------------------------

Part two (with drums)
G----------------------------------------------------------------------
D------------------------0-0--0-------------------------0-0-0-0-0-0-0-0
A-0-0--0-------------------------0-0--0--------------------------------
E--------2-2--2--0-0--0------------------2-2--2--0-0--0----------------

Chorus (version 2)                              Bar leading into bridge
G-------------------------------------          -----------------------
D----------------0-0------------------(x4)      ----------------------- 
A-0-0---------------------------------          -----------------------
E------0-0--2-2-------0-0-0-0-0-0-0-0-          --0-0-0-0-0-0-0-0------

Bridge
G------------------------------------------  --------------------------
D----------0-0-0-0--------------------(x2)-  -0-0-0-0-0-0-0-0--(x2)----
A-2-2-2-2-----------0-0-0-0----------------  --------------------------
E----------------------------0-0-0-0-------  --------------------------


The slow bit is exactly the same as Verse one
Outro is the same as chorus one except it is repeated 4 times instead of 2. 
End on open E string

I know that looks a little strange up there, so here is the structure of 
the song as well as values of the notes, cause they change around a bit.

Intro___________crotchet, dotted minim,  then D is a semibreve.
Verse 1_________"         "              The first open D is a sembrv.,                 
                                          the second is 8 quavers.
Chorus one______quavers 
Verse 2 (pt 1)__semibreves
Verse 2 (pt 2)__crotchet minim crotchet | crotchet minim crotchet | etc
                The D's leading into chorus 2 are quavers  *|= bar line
Chorus two______Crotchets   the E's are quavers  The E's going into the                 
                bridge are quavers too
Bridge__________quavers
Slow bit________exactly the same as Verse one
Outro___________exactly the same as chorus one

OK thats it Remember that this is my first tab, so if you think its really 
            
Hard to play? Try these video lessons and learn fast. | Correct




comments powered by Disqus
↑ Back to top | Tablatures and chords are parodies/interpretations of the original songs. You may use it for private study, scholarship, research or language learning purposes only