» » »

Take Me In Tabs (ver.1)

Artists:  A B C D E F G H I J K L M N O P Q R S T U V W X Y Z # 

Take Me In Tabs (ver.1)

Powderfinger
Rating:
0/5 (0 votes)

Tabs too difficult? Try these video lessons and learn fast.
                Powderfinger - Take Me In
Album - Double Allergic
  
 INTRO: (played on piano, tabbed for guitar) 
E-|------------------------------------|- 
B-|------------------------------------|- 
G-|------------------------------------|- 
D-|------------------------------------|-(etc) 
A-|-4--3--2-----------4--3--2----------|- 
E-|----------2--1--0-----------2--1--0-|- 
 
The next part of the song is just a bit of funky muting, which 
can be played by muting the strings with your fretting hand. 
 
 
VERSE: bass 
G-|-----------------------|- 
D-|-----------------------|- 
A-|-----------------------|-(etc) 
E-|-2-2-2-2-2--1-1-1--1-0-|- 
 
CHORUS: 
E-|--------------------------------|-----------------------|- 
B-|--------------------------------|-----------------------|- 
G-|-11-11-11-11-11--10-10-10--10-9-|-----------------------|- 
D-|-11-11-11-11-11--10-10-10--10-9-|-4-4-4-4-4--7-7-7--7/9-|- 
A-|-9--9--9--9--9---8--8--8---8--7-|-4-4-4-4-4--7-7-7--7/9-|- 
E-|--------------------------------|-2-2-2-2-2--5-5-5--5/7-|- 
 
BRIDGE: 
E-|-----------------------|- 
B-|-----------------------|- 
G-|-----------------------|- 
D-|-4-4-4-4-4--4-4-4--4-2-|- 
A-|-4-4-4-4-4--4-4-4--4-2-|- 
E-|-2-2-2-2-2--2-2-2--2-0-|- 
 
            
Tabs too difficult? Try these video lessons and learn fast.


comments powered by Disqus
↑ Back to top | Tablatures and chords are parodies/interpretations of the original songs. You may use it for private study, scholarship, research or language learning purposes only