» » »

Sunsets Tabs (ver.2)

Artists:  A B C D E F G H I J K L M N O P Q R S T U V W X Y Z # 

Sunsets Tabs (ver.2)

Powderfinger
Rating:
0/5 (0 votes)

Hard to play? Try these video lessons and learn fast.
                

Here's an initial tab for Sunsets as played by Bernie acoustically on the DVD.
The tunning may not be 100% correct, but it sounds pretty close.

Darren plays the other part on a 12-string acoustic in standard tuning. 

low E down to D
G down to F#
B down to A
high E down to D 

INTRO:
D |----------------------0-0-------0--|
A |----------------------0-0-------0--|
F#|--7--8--7--0--2-----5---5-----x----|
D |--7--7--7--0--2-----5---5-----x----|
A |--0--0--0--0--x-----x---------9----|(x 2)
D |--------------2--0--5-------0-0----|

VERSES:
D |---------------------0-0-------0--|---------------------------------0--|
A |---------------------0-0-------0--|--------------------0-0-0--------0--|
F#|--7--7--0--2--2----5-5-5----0--0--|--7-8-7--0--2--2----5-6-5-----0--0--|(x2)
D |--7--7--0--2--2----5---5----x--x--|--7-7-7--0--2--2----5-5-5-----x--x--|(3rd verse hold the 
A |--0--0--0--x--x----x--------9--9--|--0-0-0--0--x--x----x-x-x-----9--9--| last chord for 
D |--------0--2--2-0--5------0-0--0--|---------0--2--2-0--5-5-5---0-0--0--| another bar)

CHORUS: DARREN JOINS

BERNIE
D |--2--2--2--2--2-------------|----0--0---------------||
A |--2--2--2--2--2------0---0--|----0--0---------------||
F#|--3--3--3--3--3--2---0---1--|----0--0---------------||
D |--2--2--2--2--2--2---0---0--|----0--0---------------|| 
A |--4--4--4--4--4--2---0---2--|----0--0---------------||
D |--2--2--2--2--2--2---0---0--|----0--0---------------||
                                                        |
DARREN                                                  | 
EE|-----------------0----------|----2--2---------------|| 
BB|-----------------0-------3--|----3--3---------------||
Gg|--2--2--2--2--2--1-------0--|----2--2---------2h4p2-||
Dd|--2--2--2--2--2--2---0---0--|----0--0------2h4------||
Aa|--0--0--0--0--0--2---0---x--|----0--0---2h4---------||
Ee|-----------------0--(0)--3--|-----------------------||


BERNIE
D |--2--2--2--2--2-------------|----0--0---------------||
A |--2--2--2--2--2------0---0--|----0--0---------------||
F#|--3--3--3--3--3--2---0---1--|----0--0---------------||
D |--2--2--2--2--2--2---0---0--|----0--0---------------||
A |--4--4--4--4--4--2---0---2--|----0--0---------------||
D |--2--2--2--2--2--2---0---0--|----0--0---------------||
                                                        |
DARREN                                                  |
EE|-----------------0----------|----2--2---------------||
BB|-----------------0-------3--|----3--3---------------||
Gg|--2--2--2--2--2--1-------0--|----2--2---------------||
Dd|--2--2--2--2--2--2---0---0--|----0--0---------------||
Aa|--0--0--0--0--0--2---0---x--|----0--0---2p0-----0---||
Ee|-----------------0--(0)--3--|---------------2p0---2-||


BERNIE
D |--2--2--2--2--2-------------|----0--0---------------||
A |--2--2--2--2--2------0---0--|----0--0---------------||
F#|--3--3--3--3--3--2---0---1--|----0--0---------------||
D |--2--2--2--2--2--2---0---0--|----0--0---------------||
A |--4--4--4--4--4--2---0---2--|----0--0---------------||
D |--2--2--2--2--2--2---0---0--|----0--0---------------||
                                                        |
DARREN                                                  |
EE|-----------------0----------|----2--2---------------||
BB|-----------------0-------3--|----3--3---------------||
Gg|--2--2--2--2--2--1-------0--|----2--2---------------||
Dd|--2--2--2--2--2--2---0---0--|----0--0---------------||
Aa|--0--0--0--0--0--2---0---x--|----0--0---------------||
Ee|-----------------0--(0)--3--|-----------------------||


BERNIE
D |--2--2--2--2--2--2--2--2--|-----------0---0--0----|---------------------||
A |--2--2--2--2--2--2--2--2--|-----------0---0--0----|---0----0---0-0-0-0--||
F#|--2--2--2--2--2--2--2--2--|-----------0---0--0----|---0----1---1-1-1-0--||
D |--2--2--2--2--2--2--2--2--|----4--4---0---0--0----|---0----0---0-0-0-0--||
A |--2--2--2--2--2--2--2--2--|----4--4---0---0--0----|---0----2---2-2-2-0--||
D |--2--2--2--2--2--2--2--2--|----4--4---0---0--0----|---0----0---0-0-0-0--||
                                                                            |
                                 F#m     D               D     Dsus4   D    |
DARREN                                                                      |
EE|--0--0--0--0--0--0--0--0--|----2------2-----------|---2----2h3-3---3p2--||
BB|--0--0--0--0--0--0--0--0--|----2------3-----------|---3----3---3---3----||
Gg|--1--1--1--1--1--1--1--1--|----2------2-----------|---2----2---2---2----||
Dd|--2--2--2--2--2--2--2--2--|----4------0-----------|---0----0---0---0----||
Aa|--2--2--2--2--2--2--2--2--|----4------0-----------|---0----0---0---0----||
Ee|--0--0--0--0--0--0--0--0--|----2------------------|---------------------||


VERSE 2-3 - Darren lightly plays open A E G D chord progression underneath


GUITAR SOLO - BERNIE PLAYS THIS CHORUS UNDERNEATH
BERNIE
D |--2--2--2--2--2-------------|----0--0---------------||
A |--2--2--2--2--2------0---0--|----0--0---------------||
F#|--3--3--3--3--3--2---0---1--|----0--0---------------||
D |--2--2--2--2--2--2---0---0--|----0--0---------------|| 
A |--4--4--4--4--4--2---0---2--|----0--0---------------|| (x 3)
D |--2--2--2--2--2--2---0---0--|----0--0---------------||

D |--2--2--2--2--2--2--2--2--|-----------0---0--0----|---------------------||
A |--2--2--2--2--2--2--2--2--|-----------0---0--0----|---0----0---0-0-0-0--||
F#|--2--2--2--2--2--2--2--2--|-----------0---0--0----|---0----1---1-1-1-0--||
D |--2--2--2--2--2--2--2--2--|----4--4---0---0--0----|---0----0---0-0-0-0--||
A |--2--2--2--2--2--2--2--2--|----4--4---0---0--0----|---0----2---2-2-2-0--||
D |--2--2--2--2--2--2--2--2--|----4--4---0---0--0----|---0----0---0-0-0-0--||

OUTRO:

BERNIE
D |--7-7-7---2-2-2---5-5-5-0-0-0-0-0-||
A |--7-7-7---2-2-2---5-5-5-0-0-0-0-0-||
F#|--7-7-7-0-2-2-2-0-5-5-5-0-0-0-0-0-||
D |--7-7-7-0-2-2-2-0-5-5-5-0-0-0-0-0-||
A |--7-7-7-0-2-2-2-0-5-5-5-0-0-0-0-0-||
D |--7-7-7-0-2-2-2-0-5-5-5-0-0-0-0-0-||
                                      | (x8)
DARREN                                |
EE|----------0-0-0-----------2-2-2---||
BB|--2-2-2---0-0-0---3-3-3---3-3-3-0-||
Gg|--2-2-2-0-1-1-1-0-0-0-0-0-2-2-2-0-||
Dd|--2-2-2-0-2-2-2-0-0-0-0-0-0-0-0-0-||
Aa|--0-0-0-0-2-2-2-0-x-x-x---0-0-0---||
Ee|----------0-0-0-0-3-3-3-----------||


Verse 1:
Sunsets over the beaches from now on
Each day looking for new ways to go on 

Chorus 1:
Maybe I should drop by maybe I should have called
Maybe I should have followed you and beat down your door
Maybe it's gonna be breaking you every time you fall
But to shower you with pity will do you no good at all, no good at all

Verse 2:
Slow burn watching the world turn from my arms
New way of measuring each day until it's gone

Chorus 2:
Maybe I should drop by maybe I should have called
Maybe I should have followed you and beat down your door
Maybe it's gonna be breaking you every time you fall
But to shower you with pity will do you no good at all, no good at all

Verse 3:
Sunrise building a reprise in my heart
Regret tight around my chest plays its part - until it's gone 'till it's gone...

Solo: (play chorus)
But to shower you with pity will do you no good at all, no good at all

Outro:
Watching the sunset, sunset, sunset, sunset
Over the beaches, beaches, beaches, beaches
Watching the sunset, sunset, sunset, sunset
Over the beaches, beaches, beaches, beaches
Watching the sunset, sunset, sunset, sunset
Over the beaches, beaches, beaches, beaches
Watching the sunset, sunset, sunset, sunset
Over the beaches, beaches, beaches, beaches
            
Hard to play? Try these video lessons and learn fast. | Correct




comments powered by Disqus
↑ Back to top | Tablatures and chords are parodies/interpretations of the original songs. You may use it for private study, scholarship, research or language learning purposes only